999
test.job translated to .DXF format by VERSION 3.13c  CAD Software, Inc. -------
999
*PCB* System Parameter control commands start here ----------------------------
  0
SECTION
  2
HEADER
  9
$SNAPMODE
 70
1
  9
$SNAPUNIT
 10
25.000
 20
25.000
  9
$GRIDMODE
 70
1
  9
$GRIDUNIT
 10
100.000
 20
100.000
  9
$FILLMODE
 70
0
  9
$TDINDWG
 40
0.028
  9
$PDSIZE
 40
50.000
  9
$PDMODE
 70
3
  9
$EXTMIN
 10
-100.000
 20
-100.000
  9
$EXTMAX
 10
1500.000
 20
1300.000
  0
ENDSEC
  0
SECTION
  2
TABLES
999
PADX Layer definitions start here ---------------------------------------------
  0
TABLE
  2
LAYER
  0
LAYER
  2
VIA
 70
0
 62
12
  6
CONTINUOUS
  0
LAYER
  2
LIN0
 70
0
 62
15
  6
CONTINUOUS
  0
LAYER
  2
TXT0
 70
0
 62
15
  6
CONTINUOUS
  0
LAYER
  2
TXT2
 70
0
 62
5
  6
CONTINUOUS
  0
LAYER
  2
CON
 70
0
 62
7
  6
CONTINUOUS
  0
LAYER
  2
TRK1
 70
0
 62
4
  6
CONTINUOUS
  0
LAYER
  2
TRK2
 70
0
 62
5
  6
CONTINUOUS
  0
LAYER
  2
PAD1
 70
0
 62
11
  6
CONTINUOUS
  0
LAYER
  2
PAD2
 70
0
 62
11
  6
CONTINUOUS
  0
LAYER
  2
COM1
 70
0
 62
3
  6
CONTINUOUS
  0
LAYER
  2
COM3
 70
0
 62
2
  6
CONTINUOUS
  0
LAYER
  2
CPR1
 70
0
 62
11
  6
CONTINUOUS
  0
LAYER
  2
CPR2
 70
0
 62
11
  6
CONTINUOUS
  0
LAYER
  2
BDY0
 70
0
 62
15
  6
CONTINUOUS
  0
LAYER
  2
DRL31
 70
1
 62
-1
  6
CONTINUOUS
  0
LAYER
  2
DRL37
 70
1
 62
-1
  6
CONTINUOUS
  0
LAYER
  2
DRL100
 70
1
 62
-1
  6
CONTINUOUS
  0
ENDTAB
999
PADX style definitions start here ---------------------------------------------
  0
TABLE
  2
STYLE
  0
STYLE
  2
W10
 70
0
 40
0
 41
0.750
 50
0
 71
0
 42
0
  3
SIMPLEX
  4

  0
STYLE
  2
COPPER_CORNER
 70
0
 40
0
 41
1.000
 50
0
 71
0
 42
0
  3
RND-OUTL
  4

  0
STYLE
  2
ROUND_DONUT
 70
0
 40
0
 41
1.000
 50
0
 71
0
 42
0
  3
OCT-OUTL
  4

  0
STYLE
  2
ROUND_SOLID
 70
0
 40
0
 41
1.000
 50
0
 71
0
 42
0
  3
OCT-OUTL
  4

  0
STYLE
  2
SQUARE_DONUT
 70
0
 40
0
 41
1.000
 50
0
 71
0
 42
0
  3
SQR-OUTL
  4

  0
STYLE
  2
SQUARE_SOLID
 70
0
 40
0
 41
1.000
 50
0
 71
0
 42
0
  3
SQR-OUTL
  4

  0
STYLE
  2
ANNULAR_RING
 70
0
 40
0
 41
1.000
 50
0
 71
0
 42
0
  3
OCT-OUTL
  4

  0
ENDTAB
  0
ENDSEC
  0
SECTION
  2
BLOCKS
999
*LINES* block descriptions start here -----------------------------------------
  0
BLOCK
  8
0
  2
D3719
 70
0
 10
0.000
 20
0.000
  0
POLYLINE
  8
CPR2
 66
1
 70
1
 40
30
 41
30
  0
VERTEX
  8
CPR2
 10
0.000
 20
50.000
  0
VERTEX
  8
CPR2
 10
0.000
 20
50.000
  0
VERTEX
  8
CPR2
 10
-100.000
 20
150.000
  0
VERTEX
  8
CPR2
 10
-100.000
 20
150.000
  0
VERTEX
  8
CPR2
 10
-100.000
 20
0.000
  0
VERTEX
  8
CPR2
 10
-100.000
 20
0.000
  0
VERTEX
  8
CPR2
 10
-200.000
 20
-100.000
  0
VERTEX
  8
CPR2
 10
-200.000
 20
-100.000
  0
VERTEX
  8
CPR2
 10
-500.000
 20
-100.000
  0
VERTEX
  8
CPR2
 10
-500.000
 20
-100.000
  0
VERTEX
  8
CPR2
 10
-500.000
 20
-175.000
  0
VERTEX
  8
CPR2
 10
-500.000
 20
-175.000
  0
VERTEX
  8
CPR2
 10
125.000
 20
-175.000
  0
VERTEX
  8
CPR2
 10
125.000
 20
-175.000
  0
VERTEX
  8
CPR2
 10
125.000
 20
-125.000
  0
VERTEX
  8
CPR2
 10
125.000
 20
-125.000
  0
VERTEX
  8
CPR2
 10
0.000
 20
0.000
  0
VERTEX
  8
CPR2
 10
0.000
 20
0.000
  0
SEQEND
  0
TEXT
  8
CPR2
 10
0.000
 20
50.000
 40
8.000
  1
^^
  7
COPPER_CORNER
  0
TEXT
  8
CPR2
 10
-100.000
 20
150.000
 40
8.000
  1
^^
  7
COPPER_CORNER
  0
TEXT
  8
CPR2
 10
-100.000
 20
0.000
 40
8.000
  1
^^
  7
COPPER_CORNER
  0
TEXT
  8
CPR2
 10
-200.000
 20
-100.000
 40
8.000
  1
^^
  7
COPPER_CORNER
  0
TEXT
  8
CPR2
 10
-500.000
 20
-100.000
 40
8.000
  1
^^
  7
COPPER_CORNER
  0
TEXT
  8
CPR2
 10
-500.000
 20
-175.000
 40
8.000
  1
^^
  7
COPPER_CORNER
  0
TEXT
  8
CPR2
 10
125.000
 20
-175.000
 40
8.000
  1
^^
  7
COPPER_CORNER
  0
TEXT
  8
CPR2
 10
125.000
 20
-125.000
 40
8.000
  1
^^
  7
COPPER_CORNER
  0
TEXT
  8
CPR2
 10
0.000
 20
0.000
 40
8.000
  1
^^
  7
COPPER_CORNER
  0
ENDBLK
999
Pad block definitions start here ----------------------------------------------
  0
BLOCK
  8
0
  2
R_55D
 70
0
 10
0.000
 20
0.000
  0
TEXT
  8
0
 10
0.000
 20
0.000
 40
8.000
  1
7
  7
ROUND_DONUT
  0
ENDBLK
  0
BLOCK
  8
0
  2
R_59D
 70
0
 10
0.000
 20
0.000
  0
TEXT
  8
0
 10
0.000
 20
0.000
 40
8.000
  1
;
  7
ROUND_DONUT
  0
ENDBLK
  0
BLOCK
  8
0
  2
R_100D
 70
0
 10
0.000
 20
0.000
  0
TEXT
  8
0
 10
0.000
 20
0.000
 40
8.000
  1
d
  7
ROUND_DONUT
  0
ENDBLK
999
Drill block definitions start here --------------------------------------------
  0
BLOCK
  8
0
  2
DRL31
 70
0
 10
0.000
 20
0.000
  0
POINT
  8
0
 10
0.000
 20
0.000
  0
ENDBLK
  0
BLOCK
  8
0
  2
DRL37
 70
0
 10
0.000
 20
0.000
  0
POINT
  8
0
 10
0.000
 20
0.000
  0
ENDBLK
  0
BLOCK
  8
0
  2
DRL100
 70
0
 10
0.000
 20
0.000
  0
POINT
  8
0
 10
0.000
 20
0.000
  0
ENDBLK
999
Decal body block descriptions start here --------------------------------------
  0
BLOCK
  8
0
  2
R25_BODY
 70
0
 10
0.000
 20
0.000
  0
POLYLINE
  8
BDY0
 66
1
  0
VERTEX
  8
BDY0
 10
75.000
 20
0.000
  0
VERTEX
  8
BDY0
 10
40.000
 20
0.000
  0
SEQEND
  0
POLYLINE
  8
BDY0
 66
1
 70
1
  0
VERTEX
  8
BDY0
 10
75.000
 20
-40.000
  0
VERTEX
  8
BDY0
 10
75.000
 20
40.000
  0
VERTEX
  8
BDY0
 10
325.000
 20
40.000
  0
VERTEX
  8
BDY0
 10
325.000
 20
-40.000
  0
SEQEND
  0
POLYLINE
  8
BDY0
 66
1
  0
VERTEX
  8
BDY0
 10
325.000
 20
0.000
  0
VERTEX
  8
BDY0
 10
360.000
 20
0.000
  0
SEQEND
  0
ENDBLK
  0
BLOCK
  8
0
  2
FCR-2_BODY
 70
0
 10
0.000
 20
0.000
  0
POLYLINE
  8
BDY0
 66
1
  0
VERTEX
  8
BDY0
 10
30.000
 20
0.000
  0
VERTEX
  8
BDY0
 10
60.000
 20
0.000
  0
VERTEX
  8
BDY0
 10
60.000
 20
40.000
  0
VERTEX
  8
BDY0
 10
90.000
 20
40.000
  0
VERTEX
  8
BDY0
 10
90.000
 20
-40.000
  0
VERTEX
  8
BDY0
 10
60.000
 20
-40.000
  0
VERTEX
  8
BDY0
 10
60.000
 20
0.000
  0
VERTEX
  8
BDY0
 10
70.000
 20
0.000
  0
VERTEX
  8
BDY0
 10
70.000
 20
-30.000
  0
VERTEX
  8
BDY0
 10
80.000
 20
-30.000
  0
VERTEX
  8
BDY0
 10
80.000
 20
30.000
  0
VERTEX
  8
BDY0
 10
70.000
 20
30.000
  0
VERTEX
  8
BDY0
 10
70.000
 20
0.000
  0
SEQEND
  0
POLYLINE
  8
BDY0
 66
1
  0
VERTEX
  8
BDY0
 10
170.000
 20
0.000
  0
VERTEX
  8
BDY0
 10
140.000
 20
0.000
  0
VERTEX
  8
BDY0
 10
140.000
 20
40.000
  0
VERTEX
  8
BDY0
 10
110.000
 20
40.000
  0
VERTEX
  8
BDY0
 10
110.000
 20
-40.000
  0
VERTEX
  8
BDY0
 10
140.000
 20
-40.000
  0
VERTEX
  8
BDY0
 10
140.000
 20
0.000
  0
VERTEX
  8
BDY0
 10
130.000
 20
0.000
  0
VERTEX
  8
BDY0
 10
130.000
 20
-30.000
  0
VERTEX
  8
BDY0
 10
120.000
 20
-30.000
  0
VERTEX
  8
BDY0
 10
120.000
 20
30.000
  0
VERTEX
  8
BDY0
 10
130.000
 20
30.000
  0
VERTEX
  8
BDY0
 10
130.000
 20
0.000
  0
SEQEND
  0
ENDBLK
  0
BLOCK
  8
0
  2
SIP-3P-100_BODY
 70
0
 10
0.000
 20
0.000
  0
POLYLINE
  8
BDY0
 66
1
 70
1
  0
VERTEX
  8
BDY0
 10
-45.000
 20
45.000
  0
VERTEX
  8
BDY0
 10
245.000
 20
45.000
  0
VERTEX
  8
BDY0
 10
245.000
 20
-45.000
  0
VERTEX
  8
BDY0
 10
-45.000
 20
-45.000
  0
SEQEND
  0
ENDBLK
  0
BLOCK
  8
0
  2
DIP8_BODY
 70
0
 10
0.000
 20
0.000
  0
POLYLINE
  8
BDY0
 66
1
 70
1
  0
VERTEX
  8
BDY0
 10
-50.000
 20
260.000
  0
VERTEX
  8
BDY0
 10
350.000
 20
260.000
  0
VERTEX
  8
BDY0
 10
350.000
 20
40.000
  0
VERTEX
  8
BDY0
 10
-50.000
 20
40.000
  0
VERTEX
  8
BDY0
 10
-50.000
 20
115.000
 42
1.000
  0
VERTEX
  8
BDY0
 10
-50.000
 20
185.000
  0
SEQEND
  0
ENDBLK
  0
BLOCK
  8
0
  2
MTHOLE1_BODY
 70
0
 10
0.000
 20
0.000
  0
CIRCLE
  8
BDY0
 10
0.000
 20
0.000
 40
50.000
  0
ENDBLK
999
Decal padstack descriptions start here ----------------------------------------
  0
BLOCK
  8
0
  2
STANDARDVIA_PADT
 70
0
 10
0.000
 20
0.000
  0
INSERT
  8
0
  2
R_55D
 10
0.000
 20
0.000
  0
ENDBLK
  0
BLOCK
  8
0
  2
STANDARDVIA_PADB
 70
0
 10
0.000
 20
0.000
  0
INSERT
  8
0
  2
R_55D
 10
0.000
 20
0.000
  0
ENDBLK
  0
BLOCK
  8
0
  2
STANDARDVIA_DRL
 70
0
 10
0.000
 20
0.000
  0
INSERT
  8
DRL37
  2
DRL37
 10
0.000
 20
0.000
  0
ENDBLK
  0
BLOCK
  8
0
  2
R25_PADT
 70
0
 10
0.000
 20
0.000
  0
INSERT
  8
0
  2
R_59D
 10
0.000
 20
0.000
  0
INSERT
  8
0
  2
R_59D
 10
400.000
 20
0.000
  0
ENDBLK
  0
BLOCK
  8
0
  2
R25_PADB
 70
0
 10
0.000
 20
0.000
  0
INSERT
  8
0
  2
R_59D
 10
0.000
 20
0.000
  0
INSERT
  8
0
  2
R_59D
 10
400.000
 20
0.000
  0
ENDBLK
  0
BLOCK
  8
0
  2
R25_DRL
 70
0
 10
0.000
 20
0.000
  0
INSERT
  8
DRL31
  2
DRL31
 10
0.000
 20
0.000
  0
INSERT
  8
DRL31
  2
DRL31
 10
400.000
 20
0.000
  0
ENDBLK
  0
BLOCK
  8
0
  2
FCR-2_PADT
 70
0
 10
0.000
 20
0.000
  0
INSERT
  8
0
  2
R_59D
 10
0.000
 20
0.000
  0
INSERT
  8
0
  2
R_59D
 10
200.000
 20
0.000
  0
ENDBLK
  0
BLOCK
  8
0
  2
FCR-2_PADB
 70
0
 10
0.000
 20
0.000
  0
INSERT
  8
0
  2
R_59D
 10
0.000
 20
0.000
  0
INSERT
  8
0
  2
R_59D
 10
200.000
 20
0.000
  0
ENDBLK
  0
BLOCK
  8
0
  2
FCR-2_DRL
 70
0
 10
0.000
 20
0.000
  0
INSERT
  8
DRL31
  2
DRL31
 10
0.000
 20
0.000
  0
INSERT
  8
DRL31
  2
DRL31
 10
200.000
 20
0.000
  0
ENDBLK
  0
BLOCK
  8
0
  2
SIP-3P-100_PADT
 70
0
 10
0.000
 20
0.000
  0
INSERT
  8
0
  2
R_59D
 10
0.000
 20
0.000
  0
INSERT
  8
0
  2
R_59D
 10
100.000
 20
0.000
  0
INSERT
  8
0
  2
R_59D
 10
200.000
 20
0.000
  0
ENDBLK
  0
BLOCK
  8
0
  2
SIP-3P-100_PADB
 70
0
 10
0.000
 20
0.000
  0
INSERT
  8
0
  2
R_59D
 10
0.000
 20
0.000
  0
INSERT
  8
0
  2
R_59D
 10
100.000
 20
0.000
  0
INSERT
  8
0
  2
R_59D
 10
200.000
 20
0.000
  0
ENDBLK
  0
BLOCK
  8
0
  2
SIP-3P-100_DRL
 70
0
 10
0.000
 20
0.000
  0
INSERT
  8
DRL31
  2
DRL31
 10
0.000
 20
0.000
  0
INSERT
  8
DRL31
  2
DRL31
 10
100.000
 20
0.000
  0
INSERT
  8
DRL31
  2
DRL31
 10
200.000
 20
0.000
  0
ENDBLK
  0
BLOCK
  8
0
  2
DIP8_PADT
 70
0
 10
0.000
 20
0.000
  0
INSERT
  8
0
  2
R_59D
 10
0.000
 20
0.000
  0
INSERT
  8
0
  2
R_59D
 10
100.000
 20
0.000
  0
INSERT
  8
0
  2
R_59D
 10
200.000
 20
0.000
  0
INSERT
  8
0
  2
R_59D
 10
300.000
 20
0.000
  0
INSERT
  8
0
  2
R_59D
 10
300.000
 20
300.000
  0
INSERT
  8
0
  2
R_59D
 10
200.000
 20
300.000
  0
INSERT
  8
0
  2
R_59D
 10
100.000
 20
300.000
  0
INSERT
  8
0
  2
R_59D
 10
0.000
 20
300.000
  0
ENDBLK
  0
BLOCK
  8
0
  2
DIP8_PADB
 70
0
 10
0.000
 20
0.000
  0
INSERT
  8
0
  2
R_59D
 10
0.000
 20
0.000
  0
INSERT
  8
0
  2
R_59D
 10
100.000
 20
0.000
  0
INSERT
  8
0
  2
R_59D
 10
200.000
 20
0.000
  0
INSERT
  8
0
  2
R_59D
 10
300.000
 20
0.000
  0
INSERT
  8
0
  2
R_59D
 10
300.000
 20
300.000
  0
INSERT
  8
0
  2
R_59D
 10
200.000
 20
300.000
  0
INSERT
  8
0
  2
R_59D
 10
100.000
 20
300.000
  0
INSERT
  8
0
  2
R_59D
 10
0.000
 20
300.000
  0
ENDBLK
  0
BLOCK
  8
0
  2
DIP8_DRL
 70
0
 10
0.000
 20
0.000
  0
INSERT
  8
DRL31
  2
DRL31
 10
0.000
 20
0.000
  0
INSERT
  8
DRL31
  2
DRL31
 10
100.000
 20
0.000
  0
INSERT
  8
DRL31
  2
DRL31
 10
200.000
 20
0.000
  0
INSERT
  8
DRL31
  2
DRL31
 10
300.000
 20
0.000
  0
INSERT
  8
DRL31
  2
DRL31
 10
300.000
 20
300.000
  0
INSERT
  8
DRL31
  2
DRL31
 10
200.000
 20
300.000
  0
INSERT
  8
DRL31
  2
DRL31
 10
100.000
 20
300.000
  0
INSERT
  8
DRL31
  2
DRL31
 10
0.000
 20
300.000
  0
ENDBLK
  0
BLOCK
  8
0
  2
MTHOLE1_PADT
 70
0
 10
0.000
 20
0.000
  0
INSERT
  8
0
  2
R_100D
 10
0.000
 20
0.000
  0
ENDBLK
  0
BLOCK
  8
0
  2
MTHOLE1_PADB
 70
0
 10
0.000
 20
0.000
  0
INSERT
  8
0
  2
R_100D
 10
0.000
 20
0.000
  0
ENDBLK
  0
BLOCK
  8
0
  2
MTHOLE1_DRL
 70
0
 10
0.000
 20
0.000
  0
INSERT
  8
DRL100
  2
DRL100
 10
0.000
 20
0.000
  0
ENDBLK
999
*PARTDECAL* assembly descriptions start here ----------------------------------
  0
BLOCK
  8
COM1
  2
STANDARDVIA
 70
0
 10
0.000
 20
0.000
  0
INSERT
  8
PAD1
  2
STANDARDVIA_PADT
 10
0.000
 20
0.000
  0
INSERT
  8
PAD2
  2
STANDARDVIA_PADB
 10
0.000
 20
0.000
  0
INSERT
  8
0
  2
STANDARDVIA_DRL
 10
0.000
 20
0.000
  0
ENDBLK
  0
BLOCK
  8
0
  2
THRU_VIA
 70
0
 10
0.000
 20
0.000
  0
INSERT
  8
0
  2
STANDARDVIA
 10
0.000
 20
0.000
  0
ENDBLK
  0
BLOCK
  8
COM1
  2
R25
 70
0
 10
0.000
 20
0.000
  0
INSERT
  8
COM1
  2
R25_BODY
 10
0.000
 20
0.000
  0
INSERT
  8
PAD1
  2
R25_PADT
 10
0.000
 20
0.000
  0
INSERT
  8
PAD2
  2
R25_PADB
 10
0.000
 20
0.000
  0
INSERT
  8
0
  2
R25_DRL
 10
0.000
 20
0.000
  0
ENDBLK
  0
BLOCK
  8
COM1
  2
FCR-2
 70
0
 10
0.000
 20
0.000
  0
INSERT
  8
COM1
  2
FCR-2_BODY
 10
0.000
 20
0.000
  0
INSERT
  8
PAD1
  2
FCR-2_PADT
 10
0.000
 20
0.000
  0
INSERT
  8
PAD2
  2
FCR-2_PADB
 10
0.000
 20
0.000
  0
INSERT
  8
0
  2
FCR-2_DRL
 10
0.000
 20
0.000
  0
ENDBLK
  0
BLOCK
  8
COM1
  2
SIP-3P-100
 70
0
 10
0.000
 20
0.000
  0
INSERT
  8
COM1
  2
SIP-3P-100_BODY
 10
0.000
 20
0.000
  0
INSERT
  8
PAD1
  2
SIP-3P-100_PADT
 10
0.000
 20
0.000
  0
INSERT
  8
PAD2
  2
SIP-3P-100_PADB
 10
0.000
 20
0.000
  0
INSERT
  8
0
  2
SIP-3P-100_DRL
 10
0.000
 20
0.000
  0
ENDBLK
  0
BLOCK
  8
COM1
  2
DIP8
 70
0
 10
0.000
 20
0.000
  0
INSERT
  8
COM1
  2
DIP8_BODY
 10
0.000
 20
0.000
  0
INSERT
  8
PAD1
  2
DIP8_PADT
 10
0.000
 20
0.000
  0
INSERT
  8
PAD2
  2
DIP8_PADB
 10
0.000
 20
0.000
  0
INSERT
  8
0
  2
DIP8_DRL
 10
0.000
 20
0.000
  0
ENDBLK
  0
BLOCK
  8
COM1
  2
MTHOLE1
 70
0
 10
0.000
 20
0.000
  0
INSERT
  8
COM1
  2
MTHOLE1_BODY
 10
0.000
 20
0.000
  0
INSERT
  8
PAD1
  2
MTHOLE1_PADT
 10
0.000
 20
0.000
  0
INSERT
  8
PAD2
  2
MTHOLE1_PADB
 10
0.000
 20
0.000
  0
INSERT
  8
0
  2
MTHOLE1_DRL
 10
0.000
 20
0.000
  0
ENDBLK
  0
BLOCK
  8
0
  2
NULL_VIA
 70
0
 10
0.000
 20
0.000
  0
ENDBLK
  0
ENDSEC
  0
SECTION
  2
ENTITIES
999
*TEXT* - Free text descriptions start here ------------------------------------
  0
TEXT
  8
TXT0
 10
275.000
 20
150.000
 40
70
  1
TEST BOARD
 50
0
 41
0.750
  7
W10
  0
TEXT
  8
TXT2
 10
150.000
 20
250.000
 40
70
  1
text 90
 50
270
 41
0.750
  7
W10
 71
2
  0
TEXT
  8
TXT0
 10
1275.000
 20
1000.000
 40
70
  1
Mirrored
 50
0
 41
0.750
  7
W10
 71
2
  0
TEXT
  8
TXT0
 10
1275.000
 20
925.000
 40
70
  1
Upside down
 50
180
 41
0.750
  7
W10
  0
TEXT
  8
TXT0
 10
125.000
 20
1050.000
 40
70
  1
Mirr + Up
 50
180
 41
0.750
  7
W10
 71
2
  0
TEXT
  8
TXT0
 10
200.000
 20
850.000
 40
70
  1
90
 50
90
 41
0.750
  7
W10
  0
TEXT
  8
TXT0
 10
350.000
 20
925.000
 40
70
  1
180
 50
180
 41
0.750
  7
W10
  0
TEXT
  8
TXT0
 10
375.000
 20
950.000
 40
70
  1
270
 50
270
 41
0.750
  7
W10
  0
TEXT
  8
TXT2
 10
500.000
 20
850.000
 40
70
  1
90
 50
270
 41
0.750
  7
W10
 71
2
  0
TEXT
  8
TXT2
 10
575.000
 20
925.000
 40
70
  1
180
 50
180
 41
0.750
  7
W10
 71
2
  0
TEXT
  8
TXT2
 10
750.000
 20
1075.000
 40
70
  1
270
 50
90
 41
0.750
  7
W10
 71
2
999
*LINES* 2d Line items start here ----------------------------------------------
  0
3DFACE
  8
0
 10
100.000
 20
100.000
 11
1300.000
 21
100.000
 12
1300.000
 22
1100.000
 13
100.000
 23
1100.000
  0
POLYLINE
  8
LIN0
 66
1
 70
1
  0
VERTEX
  8
LIN0
 10
100.000
 20
100.000
  0
VERTEX
  8
LIN0
 10
1300.000
 20
100.000
  0
VERTEX
  8
LIN0
 10
1300.000
 20
1100.000
  0
VERTEX
  8
LIN0
 10
100.000
 20
1100.000
  0
SEQEND
  0
INSERT
  8
0
  2
D3719
 10
1000.000
 20
300.000
999
*PART* placement starts here --------------------------------------------------
  0
INSERT
  8
0
  2
R25
 10
300.000
 20
600.000
  0
TEXT
  8
COM3
 10
450.000
 20
575.000
 40
56
  1
R1
 50
0
 41
0.750
  7
W10
  0
INSERT
  8
0
  2
R25
 10
300.000
 20
400.000
  0
TEXT
  8
COM3
 10
450.000
 20
375.000
 40
56
  1
R2
 50
0
 41
0.750
  7
W10
  0
INSERT
  8
0
  2
FCR-2
 10
600.000
 20
700.000
  0
TEXT
  8
COM3
 10
575.000
 20
725.000
 40
56
  1
C1
 50
0
 41
0.750
  7
W10
  0
INSERT
  8
0
  2
SIP-3P-100
 10
500.000
 20
700.000
 50
180
  0
TEXT
  8
COM3
 10
150.000
 20
675.000
 40
56
  1
J1
 50
0
 41
0.750
  7
W10
  0
INSERT
  8
0
  2
SIP-3P-100
 10
1100.000
 20
700.000
 50
180
  0
TEXT
  8
COM3
 10
1175.000
 20
675.000
 40
56
  1
J2
 50
0
 41
0.750
  7
W10
  0
INSERT
  8
0
  2
DIP8
 10
800.000
 20
600.000
 50
270
  0
TEXT
  8
COM3
 10
925.000
 20
600.000
 40
56
  1
U1
 50
270
 41
0.750
  7
W10
  0
INSERT
  8
0
  2
R25
 10
300.000
 20
300.000
  0
TEXT
  8
COM3
 10
450.000
 20
275.000
 40
56
  1
R3
 50
0
 41
0.750
  7
W10
  0
INSERT
  8
0
  2
R25
 10
300.000
 20
500.000
  0
TEXT
  8
COM3
 10
450.000
 20
475.000
 40
56
  1
R4
 50
0
 41
0.750
  7
W10
  0
INSERT
  8
0
  2
MTHOLE1
 10
175.000
 20
175.000
  0
TEXT
  8
COM3
 10
125.000
 20
150.000
 40
56
  1
MH1
 50
0
 41
0.750
  7
W10
  0
INSERT
  8
0
  2
MTHOLE1
 10
1225.000
 20
175.000
  0
TEXT
  8
COM3
 10
1175.000
 20
150.000
 40
56
  1
MH2
 50
0
 41
0.750
  7
W10
999
Track Routes start here -------------------------------------------------------
  0
POLYLINE
  8
TRK1
 66
1
 40
25
 41
25
  0
VERTEX
  8
TRK1
 10
711.000
 20
589.000
  0
VERTEX
  8
TRK1
 10
750.000
 20
550.000
 40
10
 41
10
  0
VERTEX
  8
TRK1
 10
875.000
 20
550.000
  0
VERTEX
  8
TRK1
 10
1025.000
 20
400.000
 40
30
 41
30
  0
VERTEX
  8
TRK1
 10
1085.000
 20
400.000
  0
SEQEND
  8
TRK1
  0
POLYLINE
  8
TRK2
 66
1
 40
10
 41
10
  0
VERTEX
  8
TRK2
 10
900.000
 20
685.000
  0
VERTEX
  8
TRK2
 10
900.000
 20
600.000
  0
VERTEX
  8
TRK2
 10
1089.000
 20
411.000
  0
SEQEND
  8
TRK2
  0
POLYLINE
  8
TRK1
 66
1
 40
10
 41
10
  0
VERTEX
  8
TRK1
 10
715.000
 20
500.000
  0
VERTEX
  8
TRK1
 10
785.000
 20
500.000
  0
SEQEND
  8
TRK1
  0
POLYLINE
  8
TRK1
 66
1
 40
10
 41
10
  0
VERTEX
  8
TRK1
 10
315.000
 20
600.000
  0
VERTEX
  8
TRK1
 10
600.000
 20
600.000
  0
VERTEX
  8
TRK1
 10
689.000
 20
511.000
  0
SEQEND
  8
TRK1
  0
POLYLINE
  8
TRK1
 66
1
 40
10
 41
10
  0
VERTEX
  8
TRK1
 10
785.000
 20
400.000
  0
VERTEX
  8
TRK1
 10
715.000
 20
400.000
  0
SEQEND
  8
TRK1
  0
POLYLINE
  8
TRK1
 66
1
 40
10
 41
10
  0
VERTEX
  8
TRK1
 10
689.000
 20
389.000
  0
VERTEX
  8
TRK1
 10
600.000
 20
300.000
  0
VERTEX
  8
TRK1
 10
315.000
 20
300.000
  0
SEQEND
  8
TRK1
  0
POLYLINE
  8
TRK1
 66
1
 40
10
 41
10
  0
VERTEX
  8
TRK1
 10
715.000
 20
300.000
  0
VERTEX
  8
TRK1
 10
785.000
 20
300.000
  0
SEQEND
  8
TRK1
  0
POLYLINE
  8
TRK1
 66
1
 40
15
 41
15
  0
VERTEX
  8
TRK1
 10
1111.000
 20
689.000
  0
VERTEX
  8
TRK1
 10
1175.000
 20
625.000
 40
20
 41
20
  0
VERTEX
  8
TRK1
 10
1175.000
 20
275.000
 40
25
 41
25
  0
VERTEX
  8
TRK1
 10
1125.000
 20
225.000
 40
30
 41
30
  0
VERTEX
  8
TRK1
 10
875.000
 20
225.000
 40
35
 41
35
  0
VERTEX
  8
TRK1
 10
811.000
 20
289.000
  0
SEQEND
  8
TRK1
  0
POLYLINE
  8
TRK1
 66
1
 40
25
 41
25
  0
VERTEX
  8
TRK1
 10
611.000
 20
711.000
  0
VERTEX
  8
TRK1
 10
675.000
 20
775.000
 40
10
 41
10
  0
VERTEX
  8
TRK1
 10
1025.000
 20
775.000
 40
10
 41
10
  0
VERTEX
  8
TRK1
 10
1089.000
 20
711.000
  0
SEQEND
  8
TRK1
  0
POLYLINE
  8
TRK1
 66
1
 40
10
 41
10
  0
VERTEX
  8
TRK1
 10
411.000
 20
711.000
  0
VERTEX
  8
TRK1
 10
475.000
 20
775.000
  0
VERTEX
  8
TRK1
 10
525.000
 20
775.000
  0
VERTEX
  8
TRK1
 10
589.000
 20
711.000
  0
SEQEND
  8
TRK1
  0
POLYLINE
  8
TRK2
 66
1
 40
10
 41
10
  0
VERTEX
  8
TRK2
 10
1000.000
 20
685.000
  0
VERTEX
  8
TRK2
 10
1000.000
 20
600.000
  0
VERTEX
  8
TRK2
 10
1089.000
 20
511.000
  0
SEQEND
  8
TRK2
  0
POLYLINE
  8
TRK1
 66
1
 40
10
 41
10
  0
VERTEX
  8
TRK1
 10
811.000
 20
689.000
  0
VERTEX
  8
TRK1
 10
875.000
 20
625.000
  0
VERTEX
  8
TRK1
 10
925.000
 20
625.000
  0
VERTEX
  8
TRK1
 10
989.000
 20
689.000
  0
SEQEND
  8
TRK1
  0
POLYLINE
  8
TRK1
 66
1
 40
10
 41
10
  0
VERTEX
  8
TRK1
 10
315.000
 20
500.000
  0
VERTEX
  8
TRK1
 10
500.000
 20
500.000
  0
SEQEND
  8
TRK1
  0
INSERT
  8
VIA
  2
THRU_VIA
 10
500.000
 20
500.000
  0
POLYLINE
  8
TRK2
 66
1
 40
10
 41
10
  0
VERTEX
  8
TRK2
 10
500.000
 20
500.000
  0
VERTEX
  8
TRK2
 10
500.000
 20
685.000
  0
SEQEND
  8
TRK2
  0
POLYLINE
  8
TRK2
 66
1
 40
10
 41
10
  0
VERTEX
  8
TRK2
 10
311.000
 20
411.000
  0
VERTEX
  8
TRK2
 10
375.000
 20
475.000
  0
VERTEX
  8
TRK2
 10
375.000
 20
625.000
  0
VERTEX
  8
TRK2
 10
311.000
 20
689.000
  0
SEQEND
  8
TRK2
  0
ENDSEC
  0
EOF
