  0
SECTION
  2
HEADER
  9
$ACADVER
  1
AC1006
  9
$INSBASE
 10
0.0
 20
0.0
 30
0.0
  9
$EXTMIN
 10
-4440.0
 20
-4512.0
  9
$EXTMAX
 10
5160.0
 20
5088.0
  9
$LIMMIN
 10
0.0
 20
0.0
  9
$LIMMAX
 10
12.0
 20
9.0
  9
$ORTHOMODE
 70
     0
  9
$REGENMODE
 70
     1
  9
$FILLMODE
 70
     1
  9
$QTEXTMODE
 70
     0
  9
$MIRRTEXT
 70
     1
  9
$DRAGMODE
 70
     2
  9
$LTSCALE
 40
1.0
  9
$OSMODE
 70
     0
  9
$ATTMODE
 70
     2
  9
$TEXTSIZE
 40
0.007822
  9
$TRACEWID
 40
0.05
  9
$TEXTSTYLE
  7
BIGD
  9
$CLAYER
  8
TRIM
  9
$CELTYPE
  6
BYLAYER
  9
$CECOLOR
 62
   256
  9
$DIMSCALE
 40
1.0
  9
$DIMASZ
 40
0.18
  9
$DIMEXO
 40
0.0625
  9
$DIMDLI
 40
0.38
  9
$DIMRND
 40
0.0
  9
$DIMDLE
 40
0.0
  9
$DIMEXE
 40
0.18
  9
$DIMTP
 40
0.0
  9
$DIMTM
 40
0.0
  9
$DIMTXT
 40
0.18
  9
$DIMCEN
 40
0.09
  9
$DIMTSZ
 40
0.0
  9
$DIMTOL
 70
     0
  9
$DIMLIM
 70
     0
  9
$DIMTIH
 70
     1
  9
$DIMTOH
 70
     1
  9
$DIMSE1
 70
     0
  9
$DIMSE2
 70
     0
  9
$DIMTAD
 70
     0
  9
$DIMZIN
 70
     0
  9
$DIMBLK
  1

  9
$DIMASO
 70
     1
  9
$DIMSHO
 70
     0
  9
$DIMPOST
  1

  9
$DIMAPOST
  1

  9
$DIMALT
 70
     0
  9
$DIMALTD
 70
     2
  9
$DIMALTF
 40
25.4
  9
$DIMLFAC
 40
1.0
  9
$DIMTOFL
 70
     0
  9
$DIMTVP
 40
0.0
  9
$DIMTIX
 70
     0
  9
$DIMSOXD
 70
     0
  9
$DIMSAH
 70
     0
  9
$DIMBLK1
  1

  9
$DIMBLK2
  1

  9
$LUNITS
 70
     4
  9
$LUPREC
 70
     4
  9
$AXISMODE
 70
     0
  9
$AXISUNIT
 10
0.0
 20
0.0
  9
$SKETCHINC
 40
0.1
  9
$FILLETRAD
 40
6.0
  9
$AUNITS
 70
     0
  9
$AUPREC
 70
     2
  9
$MENU
  1
ACAD
  9
$ELEVATION
 40
0.0
  9
$THICKNESS
 40
0.0
  9
$LIMCHECK
 70
     0
  9
$BLIPMODE
 70
     0
  9
$CHAMFERA
 40
0.0
  9
$CHAMFERB
 40
0.0
  9
$SKPOLY
 70
     0
  9
$TDCREATE
 40
2447533.6489846064
  9
$TDUPDATE
 40
2448063.4433351853
  9
$TDINDWG
 40
0.0126936343
  9
$TDUSRTIMER
 40
0.0126936343
  9
$USRTIMER
 70
     1
  9
$ANGBASE
 50
0.0
  9
$ANGDIR
 70
     0
  9
$PDMODE
 70
     0
  9
$PDSIZE
 40
0.0
  9
$PLINEWID
 40
0.0
  9
$COORDS
 70
     2
  9
$SPLFRAME
 70
     0
  9
$SPLINETYPE
 70
     6
  9
$SPLINESEGS
 70
     8
  9
$ATTDIA
 70
     0
  9
$ATTREQ
 70
     1
  9
$HANDLING
 70
     0
  9
$HANDSEED
  5
0
  9
$SURFTAB1
 70
     6
  9
$SURFTAB2
 70
     6
  9
$SURFTYPE
 70
     6
  9
$SURFU
 70
     6
  9
$SURFV
 70
     6
  9
$FLATLAND
 70
     1
  9
$UCSNAME
  2

  9
$UCSORG
 10
0.0
 20
0.0
 30
0.0
  9
$UCSXDIR
 10
1.0
 20
0.0
 30
0.0
  9
$UCSYDIR
 10
0.0
 20
1.0
 30
0.0
  9
$USERI1
 70
     0
  9
$USERI2
 70
     0
  9
$USERI3
 70
     0
  9
$USERI4
 70
     0
  9
$USERI5
 70
     0
  9
$USERR1
 40
0.0
  9
$USERR2
 40
0.0
  9
$USERR3
 40
0.0
  9
$USERR4
 40
0.0
  9
$USERR5
 40
0.0
  9
$WORLDVIEW
 70
     0
  9
$VIEWCTR
 10
341.132581
 20
67.710145
  9
$VIEWSIZE
 40
950.724638
  9
$SNAPMODE
 70
     1
  9
$SNAPUNIT
 10
36.0
 20
36.0
  9
$SNAPBASE
 10
0.0
 20
0.0
  9
$SNAPANG
 50
0.0
  9
$SNAPSTYLE
 70
     0
  9
$SNAPISOPAIR
 70
     0
  9
$GRIDMODE
 70
     0
  9
$GRIDUNIT
 10
0.0
 20
0.0
  9
$FASTZOOM
 70
     1
  9
$VIEWDIR
 10
0.0
 20
0.0
 30
1.0
  0
ENDSEC
  0
SECTION
  2
TABLES
  0
TABLE
  2
VPORT
 70
     2
  0
VPORT
  2
*ACTIVE
 70
     0
 10
0.0
 20
0.0
 11
1.0
 21
1.0
 12
341.132581
 22
67.710145
 13
0.0
 23
0.0
 14
36.0
 24
36.0
 15
0.0
 25
0.0
 16
0.0
 26
0.0
 36
1.0
 17
0.0
 27
0.0
 37
0.0
 40
950.724638
 41
1.380723
 42
50.0
 43
0.0
 44
0.0
 50
0.0
 51
0.0
 71
     0
 72
   100
 73
     1
 74
     1
 75
     1
 76
     0
 77
     0
 78
     0
  0
ENDTAB
  0
TABLE
  2
LTYPE
 70
     1
  0
LTYPE
  2
CONTINUOUS
 70
    64
  3
Solid line
 72
    65
 73
     0
 40
0.0
  0
ENDTAB
  0
TABLE
  2
LAYER
 70
    14
  0
LAYER
  2
0
 70
    64
 62
     7
  6
CONTINUOUS
  0
LAYER
  2
WINDOWS
 70
    64
 62
     1
  6
CONTINUOUS
  0
LAYER
  2
WALLS
 70
    64
 62
     7
  6
CONTINUOUS
  0
LAYER
  2
GROUND
 70
    64
 62
     3
  6
CONTINUOUS
  0
LAYER
  2
TRIM
 70
    64
 62
     4
  6
CONTINUOUS
  0
LAYER
  2
SIDEWALK
 70
    64
 62
     6
  6
CONTINUOUS
  0
LAYER
  2
ROOF
 70
    64
 62
     5
  6
CONTINUOUS
  0
LAYER
  2
POOL
 70
    64
 62
     7
  6
CONTINUOUS
  0
LAYER
  2
CHROME
 70
    64
 62
     7
  6
CONTINUOUS
  0
LAYER
  2
BOARD
 70
    64
 62
     9
  6
CONTINUOUS
  0
LAYER
  2
ARMS
 70
    64
 62
    10
  6
CONTINUOUS
  0
LAYER
  2
CUSHIONS
 70
    64
 62
    11
  6
CONTINUOUS
  0
LAYER
  2
BIGD
 70
     0
 62
     7
  6
CONTINUOUS
  0
LAYER
  2
FLOAT
 70
    64
 62
    12
  6
CONTINUOUS
  0
ENDTAB
  0
TABLE
  2
STYLE
 70
     2
  0
STYLE
  2
STANDARD
 70
     0
 40
0.0
 41
1.0
 50
0.0
 71
     0
 42
0.2
  3
txt
  4

  0
STYLE
  2
BIGD
 70
     0
 40
0.007822
 41
1.0
 50
0.0
 71
     0
 42
0.007822
  3
txt
  4

  0
ENDTAB
  0
TABLE
  2
VIEW
 70
     0
  0
ENDTAB
  0
TABLE
  2
UCS
 70
     0
  0
ENDTAB
  0
TABLE
  2
DWGMGR
 70
     0
  0
ENDTAB
  0
ENDSEC
  0
SECTION
  2
BLOCKS
  0
BLOCK
  8
TRIM
  2
NORTH
 70
    64
 10
0.0
 20
0.0
  0
LINE
  8
WALLS
 10
0.0
 20
0.0
 30
336.0
 11
0.0
 21
0.0
 31
330.0
210
0.0
220
-1.0
230
0.0
  0
LINE
  8
WALLS
 10
504.0
 20
0.0
 30
336.0
 11
0.0
 21
0.0
 31
336.0
210
0.0
220
-1.0
230
0.0
  0
LINE
  8
WALLS
 10
504.0
 20
0.0
 30
330.0
 11
504.0
 21
0.0
 31
336.0
210
0.0
220
-1.0
230
0.0
  0
LINE
  8
WALLS
 10
0.0
 20
0.0
 30
330.0
 11
504.0
 21
0.0
 31
330.0
210
0.0
220
-1.0
230
0.0
  0
LINE
  8
WINDOWS
 10
6.0
 20
3.0
 30
324.0
 11
6.0
 21
3.0
 31
0.0
210
0.0
220
-1.0
230
0.0
  0
LINE
  8
WINDOWS
 10
498.0
 20
3.0
 30
324.0
 11
6.0
 21
3.0
 31
324.0
210
0.0
220
-1.0
230
0.0
  0
LINE
  8
WINDOWS
 10
498.0
 20
3.0
 30
0.0
 11
498.0
 21
3.0
 31
324.0
210
0.0
220
-1.0
230
0.0
  0
LINE
  8
WINDOWS
 10
6.0
 20
3.0
 30
0.0
 11
498.0
 21
3.0
 31
0.0
210
0.0
220
-1.0
230
0.0
  0
LINE
  8
WALLS
 39
-3.0
 10
6.0
 20
0.0
 30
324.0
 11
6.0
 21
0.0
 31
288.0
210
0.0
220
-1.0
230
0.0
  0
LINE
  8
WALLS
 39
-3.0
 10
138.0
 20
0.0
 30
324.0
 11
6.0
 21
0.0
 31
324.0
210
0.0
220
-1.0
230
0.0
  0
LINE
  8
WALLS
 39
-3.0
 10
138.0
 20
0.0
 30
288.0
 11
138.0
 21
0.0
 31
324.0
210
0.0
220
-1.0
230
0.0
  0
LINE
  8
WALLS
 39
-3.0
 10
6.0
 20
0.0
 30
288.0
 11
138.0
 21
0.0
 31
288.0
210
0.0
220
-1.0
230
0.0
  0
LINE
  8
WALLS
 39
-3.0
 10
150.0
 20
0.0
 30
288.0
 11
282.0
 21
0.0
 31
288.0
210
0.0
220
-1.0
230
0.0
  0
LINE
  8
WALLS
 39
-3.0
 10
150.0
 20
0.0
 30
324.0
 11
150.0
 21
0.0
 31
288.0
210
0.0
220
-1.0
230
0.0
  0
LINE
  8
WALLS
 39
-3.0
 10
282.0
 20
0.0
 30
324.0
 11
150.0
 21
0.0
 31
324.0
210
0.0
220
-1.0
230
0.0
  0
LINE
  8
WALLS
 39
-3.0
 10
282.0
 20
0.0
 30
288.0
 11
282.0
 21
0.0
 31
324.0
210
0.0
220
-1.0
230
0.0
  0
LINE
  8
WALLS
 39
-3.0
 10
438.0
 20
0.0
 30
324.0
 11
438.0
 21
0.0
 31
108.0
210
0.0
220
-1.0
230
0.0
  0
LINE
  8
WALLS
 39
-3.0
 10
498.0
 20
0.0
 30
324.0
 11
438.0
 21
0.0
 31
324.0
210
0.0
220
-1.0
230
0.0
  0
LINE
  8
WALLS
 39
-3.0
 10
498.0
 20
0.0
 30
108.0
 11
498.0
 21
0.0
 31
324.0
210
0.0
220
-1.0
230
0.0
  0
LINE
  8
WALLS
 39
-3.0
 10
438.0
 20
0.0
 30
108.0
 11
498.0
 21
0.0
 31
108.0
210
0.0
220
-1.0
230
0.0
  0
LINE
  8
WALLS
 39
-3.0
 10
288.0
 20
0.0
 30
324.0
 11
288.0
 21
0.0
 31
108.0
210
0.0
220
-1.0
230
0.0
  0
LINE
  8
WALLS
 39
-3.0
 10
432.0
 20
0.0
 30
324.0
 11
288.0
 21
0.0
 31
324.0
210
0.0
220
-1.0
230
0.0
  0
LINE
  8
WALLS
 39
-3.0
 10
432.0
 20
0.0
 30
108.0
 11
432.0
 21
0.0
 31
324.0
210
0.0
220
-1.0
230
0.0
  0
LINE
  8
WALLS
 39
-3.0
 10
288.0
 20
0.0
 30
108.0
 11
432.0
 21
0.0
 31
108.0
210
0.0
220
-1.0
230
0.0
  0
LINE
  8
WALLS
 39
-3.0
 10
0.0
 20
0.0
 30
330.0
 11
0.0
 21
0.0
 31
0.0
210
0.0
220
-1.0
230
0.0
  0
LINE
  8
WALLS
 39
-3.0
 10
504.0
 20
0.0
 30
330.0
 11
0.0
 21
0.0
 31
330.0
210
0.0
220
-1.0
230
0.0
  0
LINE
  8
WALLS
 39
-3.0
 10
504.0
 20
0.0
 30
0.0
 11
504.0
 21
0.0
 31
330.0
210
0.0
220
-1.0
230
0.0
  0
LINE
  8
WALLS
 39
-3.0
 10
282.0
 20
0.0
 30
0.0
 11
504.0
 21
0.0
 31
0.0
210
0.0
220
-1.0
230
0.0
  0
LINE
  8
WALLS
 39
-3.0
 10
282.0
 20
0.0
 30
96.0
 11
282.0
 21
0.0
 31
0.0
210
0.0
220
-1.0
230
0.0
  0
LINE
  8
WALLS
 39
-3.0
 10
150.0
 20
0.0
 30
96.0
 11
282.0
 21
0.0
 31
96.0
210
0.0
220
-1.0
230
0.0
  0
LINE
  8
WALLS
 39
-3.0
 10
150.0
 20
0.0
 30
0.0
 11
150.0
 21
0.0
 31
96.0
210
0.0
220
-1.0
230
0.0
  0
LINE
  8
WALLS
 39
-3.0
 10
0.0
 20
0.0
 30
0.0
 11
150.0
 21
0.0
 31
0.0
210
0.0
220
-1.0
230
0.0
  0
ENDBLK
  8
TRIM
  0
BLOCK
  8
TRIM
  2
NORTH1
 70
    64
 10
0.0
 20
0.0
  0
LINE
  8
WALLS
 39
-3.0
 10
0.0
 20
0.0
 30
192.0
 11
504.0
 21
0.0
 31
192.0
210
0.0
220
-1.0
230
0.0
  0
LINE
  8
WALLS
 39
-3.0
 10
504.0
 20
0.0
 30
192.0
 11
504.0
 21
0.0
 31
330.0
210
0.0
220
-1.0
230
0.0
  0
LINE
  8
WALLS
 39
-3.0
 10
504.0
 20
0.0
 30
330.0
 11
0.0
 21
0.0
 31
330.0
210
0.0
220
-1.0
230
0.0
  0
LINE
  8
WALLS
 39
-3.0
 10
0.0
 20
0.0
 30
330.0
 11
0.0
 21
0.0
 31
192.0
210
0.0
220
-1.0
230
0.0
  0
LINE
  8
WALLS
 10
0.0
 20
0.0
 30
330.0
 11
504.0
 21
0.0
 31
330.0
210
0.0
220
-1.0
230
0.0
  0
LINE
  8
WALLS
 10
504.0
 20
0.0
 30
330.0
 11
504.0
 21
0.0
 31
336.0
210
0.0
220
-1.0
230
0.0
  0
LINE
  8
WALLS
 10
504.0
 20
0.0
 30
336.0
 11
0.0
 21
0.0
 31
336.0
210
0.0
220
-1.0
230
0.0
  0
LINE
  8
WALLS
 10
0.0
 20
0.0
 30
336.0
 11
0.0
 21
0.0
 31
330.0
210
0.0
220
-1.0
230
0.0
  0
LINE
  8
WALLS
 39
-3.0
 10
6.0
 20
0.0
 30
264.0
 11
138.0
 21
0.0
 31
264.0
210
0.0
220
-1.0
230
0.0
  0
LINE
  8
WALLS
 39
-3.0
 10
138.0
 20
0.0
 30
264.0
 11
138.0
 21
0.0
 31
324.0
210
0.0
220
-1.0
230
0.0
  0
LINE
  8
WALLS
 39
-3.0
 10
138.0
 20
0.0
 30
324.0
 11
6.0
 21
0.0
 31
324.0
210
0.0
220
-1.0
230
0.0
  0
LINE
  8
WALLS
 39
-3.0
 10
6.0
 20
0.0
 30
324.0
 11
6.0
 21
0.0
 31
264.0
210
0.0
220
-1.0
230
0.0
  0
LINE
  8
WALLS
 39
-3.0
 10
150.0
 20
0.0
 30
264.0
 11
276.0
 21
0.0
 31
264.0
210
0.0
220
-1.0
230
0.0
  0
LINE
  8
WALLS
 39
-3.0
 10
276.0
 20
0.0
 30
264.0
 11
276.0
 21
0.0
 31
324.0
210
0.0
220
-1.0
230
0.0
  0
LINE
  8
WALLS
 39
-3.0
 10
276.0
 20
0.0
 30
324.0
 11
150.0
 21
0.0
 31
324.0
210
0.0
220
-1.0
230
0.0
  0
LINE
  8
WALLS
 39
-3.0
 10
150.0
 20
0.0
 30
324.0
 11
150.0
 21
0.0
 31
264.0
210
0.0
220
-1.0
230
0.0
  0
LINE
  8
WALLS
 39
-3.0
 10
288.0
 20
0.0
 30
264.0
 11
432.0
 21
0.0
 31
264.0
210
0.0
220
-1.0
230
0.0
  0
LINE
  8
WALLS
 39
-3.0
 10
432.0
 20
0.0
 30
264.0
 11
432.0
 21
0.0
 31
324.0
210
0.0
220
-1.0
230
0.0
  0
LINE
  8
WALLS
 39
-3.0
 10
432.0
 20
0.0
 30
324.0
 11
288.0
 21
0.0
 31
324.0
210
0.0
220
-1.0
230
0.0
  0
LINE
  8
WALLS
 39
-3.0
 10
288.0
 20
0.0
 30
324.0
 11
288.0
 21
0.0
 31
264.0
210
0.0
220
-1.0
230
0.0
  0
LINE
  8
WALLS
 39
-3.0
 10
438.0
 20
0.0
 30
264.0
 11
498.0
 21
0.0
 31
264.0
210
0.0
220
-1.0
230
0.0
  0
LINE
  8
WALLS
 39
-3.0
 10
498.0
 20
0.0
 30
264.0
 11
498.0
 21
0.0
 31
324.0
210
0.0
220
-1.0
230
0.0
  0
LINE
  8
WALLS
 39
-3.0
 10
498.0
 20
0.0
 30
324.0
 11
438.0
 21
0.0
 31
324.0
210
0.0
220
-1.0
230
0.0
  0
LINE
  8
WALLS
 39
-3.0
 10
438.0
 20
0.0
 30
324.0
 11
438.0
 21
0.0
 31
264.0
210
0.0
220
-1.0
230
0.0
  0
LINE
  8
WINDOWS
 10
6.0
 20
3.0
 30
264.0
 11
498.0
 21
3.0
 31
264.0
210
0.0
220
-1.0
230
0.0
  0
LINE
  8
WINDOWS
 10
498.0
 20
3.0
 30
264.0
 11
498.0
 21
3.0
 31
324.0
210
0.0
220
-1.0
230
0.0
  0
LINE
  8
WINDOWS
 10
498.0
 20
3.0
 30
324.0
 11
6.0
 21
3.0
 31
324.0
210
0.0
220
-1.0
230
0.0
  0
LINE
  8
WINDOWS
 10
6.0
 20
3.0
 30
324.0
 11
6.0
 21
3.0
 31
264.0
210
0.0
220
-1.0
230
0.0
  0
ENDBLK
  8
TRIM
  0
BLOCK
  8
TRIM
  2
EAST
 70
    64
 10
0.0
 20
0.0
  0
LINE
  8
WALLS
 39
-3.0
 10
0.0
 20
0.0
 30
96.0
 11
216.0
 21
0.0
 31
96.0
210
0.0
220
-1.0
230
0.0
  0
LINE
  8
WALLS
 39
-3.0
 10
216.0
 20
0.0
 30
96.0
 11
216.0
 21
0.0
 31
0.0
210
0.0
220
-1.0
230
0.0
  0
LINE
  8
WALLS
 39
-3.0
 10
216.0
 20
0.0
 30
0.0
 11
288.0
 21
0.0
 31
0.0
210
0.0
220
-1.0
230
0.0
  0
LINE
  8
WALLS
 39
-3.0
 10
288.0
 20
0.0
 30
0.0
 11
288.0
 21
0.0
 31
336.0
210
0.0
220
-1.0
230
0.0
  0
LINE
  8
WALLS
 39
-3.0
 10
288.0
 20
0.0
 30
336.0
 11
144.0
 21
0.0
 31
192.0
210
0.0
220
-1.0
230
0.0
  0
LINE
  8
WALLS
 39
-3.0
 10
144.0
 20
0.0
 30
192.0
 11
144.0
 21
0.0
 31
336.0
210
0.0
220
-1.0
230
0.0
  0
LINE
  8
WALLS
 39
-3.0
 10
144.0
 20
0.0
 30
336.0
 11
0.0
 21
0.0
 31
192.0
210
0.0
220
-1.0
230
0.0
  0
LINE
  8
WALLS
 39
-3.0
 10
0.0
 20
0.0
 30
192.0
 11
0.0
 21
0.0
 31
162.0
210
0.0
220
-1.0
230
0.0
  0
LINE
  8
WALLS
 39
-3.0
 10
144.0
 20
0.0
 30
144.0
 11
282.0
 21
0.0
 31
144.0
210
0.0
220
-1.0
230
0.0
  0
LINE
  8
WALLS
 39
-3.0
 10
282.0
 20
0.0
 30
144.0
 11
282.0
 21
0.0
 31
162.0
210
0.0
220
-1.0
230
0.0
  0
LINE
  8
WALLS
 39
-3.0
 10
282.0
 20
0.0
 30
162.0
 11
144.0
 21
0.0
 31
162.0
210
0.0
220
-1.0
230
0.0
  0
LINE
  8
WALLS
 39
-3.0
 10
144.0
 20
0.0
 30
162.0
 11
144.0
 21
0.0
 31
144.0
210
0.0
220
-1.0
230
0.0
  0
LINE
  8
WALLS
 39
-3.0
 10
138.0
 20
0.0
 30
144.0
 11
138.0
 21
0.0
 31
162.0
210
0.0
220
-1.0
230
0.0
  0
LINE
  8
WALLS
 39
-3.0
 10
138.0
 20
0.0
 30
162.0
 11
0.0
 21
0.0
 31
162.0
210
0.0
220
-1.0
230
0.0
  0
LINE
  8
WALLS
 39
-3.0
 10
0.0
 20
0.0
 30
144.0
 11
138.0
 21
0.0
 31
144.0
210
0.0
220
-1.0
230
0.0
  0
LINE
  8
WALLS
 39
-3.0
 10
0.0
 20
0.0
 30
144.0
 11
0.0
 21
0.0
 31
96.0
210
0.0
220
-1.0
230
0.0
  0
LINE
  8
WINDOWS
 10
0.0
 20
3.0
 30
0.0
 11
216.0
 21
3.0
 31
0.0
210
0.0
220
-1.0
230
0.0
  0
LINE
  8
WINDOWS
 10
216.0
 20
3.0
 30
0.0
 11
216.0
 21
3.0
 31
96.0
210
0.0
220
-1.0
230
0.0
  0
LINE
  8
WINDOWS
 10
216.0
 20
3.0
 30
96.0
 11
0.0
 21
3.0
 31
96.0
210
0.0
220
-1.0
230
0.0
  0
LINE
  8
WINDOWS
 10
0.0
 20
3.0
 30
96.0
 11
0.0
 21
3.0
 31
0.0
210
0.0
220
-1.0
230
0.0
  0
LINE
  8
WINDOWS
 10
0.0
 20
3.0
 30
144.0
 11
282.0
 21
3.0
 31
144.0
210
0.0
220
-1.0
230
0.0
  0
LINE
  8
WINDOWS
 10
282.0
 20
3.0
 30
144.0
 11
282.0
 21
3.0
 31
162.0
210
0.0
220
-1.0
230
0.0
  0
LINE
  8
WINDOWS
 10
282.0
 20
3.0
 30
162.0
 11
0.0
 21
3.0
 31
162.0
210
0.0
220
-1.0
230
0.0
  0
LINE
  8
WINDOWS
 10
0.0
 20
3.0
 30
162.0
 11
0.0
 21
3.0
 31
144.0
210
0.0
220
-1.0
230
0.0
  0
ENDBLK
  8
TRIM
  0
BLOCK
  8
TRIM
  2
WEST
 70
    64
 10
0.0
 20
0.0
  0
LINE
  8
WINDOWS
 10
6.0
 20
3.0
 30
96.0
 11
6.0
 21
3.0
 31
0.0
210
0.0
220
-1.0
230
0.0
  0
LINE
  8
WINDOWS
 10
354.0
 20
3.0
 30
96.0
 11
6.0
 21
3.0
 31
96.0
210
0.0
220
-1.0
230
0.0
  0
LINE
  8
WINDOWS
 10
354.0
 20
3.0
 30
0.0
 11
354.0
 21
3.0
 31
96.0
210
0.0
220
-1.0
230
0.0
  0
LINE
  8
WINDOWS
 10
6.0
 20
3.0
 30
0.0
 11
354.0
 21
3.0
 31
0.0
210
0.0
220
-1.0
230
0.0
  0
LINE
  8
WALLS
 39
-3.0
 10
0.0
 20
0.0
 30
336.0
 11
0.0
 21
0.0
 31
0.0
210
0.0
220
-1.0
230
0.0
  0
LINE
  8
WALLS
 39
-3.0
 10
144.0
 20
0.0
 30
192.0
 11
0.0
 21
0.0
 31
336.0
210
0.0
220
-1.0
230
0.0
  0
LINE
  8
WALLS
 39
-3.0
 10
144.0
 20
0.0
 30
336.0
 11
144.0
 21
0.0
 31
192.0
210
0.0
220
-1.0
230
0.0
  0
LINE
  8
WALLS
 39
-3.0
 10
288.0
 20
0.0
 30
192.0
 11
144.0
 21
0.0
 31
336.0
210
0.0
220
-1.0
230
0.0
  0
LINE
  8
WALLS
 39
-3.0
 10
216.0
 20
0.0
 30
96.0
 11
6.0
 21
0.0
 31
96.0
210
0.0
220
-1.0
230
0.0
  0
LINE
  8
WALLS
 39
-3.0
 10
216.0
 20
0.0
 30
66.0
 11
216.0
 21
0.0
 31
96.0
210
0.0
220
-1.0
230
0.0
  0
LINE
  8
WALLS
 39
-3.0
 10
6.0
 20
0.0
 30
66.0
 11
216.0
 21
0.0
 31
66.0
210
0.0
220
-1.0
230
0.0
  0
LINE
  8
WALLS
 39
-3.0
 10
6.0
 20
0.0
 30
96.0
 11
6.0
 21
0.0
 31
66.0
210
0.0
220
-1.0
230
0.0
  0
LINE
  8
WALLS
 39
-3.0
 10
354.0
 20
0.0
 30
96.0
 11
354.0
 21
0.0
 31
0.0
210
0.0
220
-1.0
230
0.0
  0
LINE
  8
WALLS
 39
-3.0
 10
360.0
 20
0.0
 30
96.0
 11
354.0
 21
0.0
 31
96.0
210
0.0
220
-1.0
230
0.0
  0
LINE
  8
WALLS
 39
-3.0
 10
360.0
 20
0.0
 30
0.0
 11
360.0
 21
0.0
 31
96.0
210
0.0
220
-1.0
230
0.0
  0
LINE
  8
WALLS
 39
-3.0
 10
354.0
 20
0.0
 30
0.0
 11
360.0
 21
0.0
 31
0.0
210
0.0
220
-1.0
230
0.0
  0
LINE
  8
WALLS
 39
-3.0
 10
288.0
 20
0.0
 30
96.0
 11
288.0
 21
0.0
 31
192.0
210
0.0
220
-1.0
230
0.0
  0
LINE
  8
WALLS
 39
-3.0
 10
222.0
 20
0.0
 30
96.0
 11
288.0
 21
0.0
 31
96.0
210
0.0
220
-1.0
230
0.0
  0
LINE
  8
WALLS
 39
-3.0
 10
222.0
 20
0.0
 30
0.0
 11
222.0
 21
0.0
 31
96.0
210
0.0
220
-1.0
230
0.0
  0
LINE
  8
WALLS
 39
-3.0
 10
0.0
 20
0.0
 30
0.0
 11
222.0
 21
0.0
 31
0.0
210
0.0
220
-1.0
230
0.0
  0
ENDBLK
  8
TRIM
  0
BLOCK
  8
TRIM
  2
WEST1
 70
    64
 10
0.0
 20
0.0
  0
LINE
  8
WINDOWS
 10
0.0
 20
3.0
 30
180.0
 11
0.0
 21
3.0
 31
132.0
210
0.0
220
-1.0
230
0.0
  0
LINE
  8
WINDOWS
 10
72.0
 20
3.0
 30
180.0
 11
0.0
 21
3.0
 31
180.0
210
0.0
220
-1.0
230
0.0
  0
LINE
  8
WINDOWS
 10
72.0
 20
3.0
 30
132.0
 11
72.0
 21
3.0
 31
180.0
210
0.0
220
-1.0
230
0.0
  0
LINE
  8
WINDOWS
 10
0.0
 20
3.0
 30
132.0
 11
72.0
 21
3.0
 31
132.0
210
0.0
220
-1.0
230
0.0
  0
LINE
  8
WALLS
 39
-3.0
 10
0.0
 20
0.0
 30
132.0
 11
0.0
 21
0.0
 31
96.0
210
0.0
220
-1.0
230
0.0
  0
LINE
  8
WALLS
 39
-3.0
 10
72.0
 20
0.0
 30
132.0
 11
0.0
 21
0.0
 31
132.0
210
0.0
220
-1.0
230
0.0
  0
LINE
  8
WALLS
 39
-3.0
 10
72.0
 20
0.0
 30
180.0
 11
72.0
 21
0.0
 31
132.0
210
0.0
220
-1.0
230
0.0
  0
LINE
  8
WALLS
 39
-3.0
 10
0.0
 20
0.0
 30
180.0
 11
72.0
 21
0.0
 31
180.0
210
0.0
220
-1.0
230
0.0
  0
LINE
  8
WALLS
 39
-3.0
 10
0.0
 20
0.0
 30
192.0
 11
0.0
 21
0.0
 31
180.0
210
0.0
220
-1.0
230
0.0
  0
LINE
  8
WALLS
 39
-3.0
 10
95.823372
 20
0.0
 30
192.0
 11
0.0
 21
0.0
 31
192.0
210
0.0
220
-1.0
230
0.0
  0
LINE
  8
WALLS
 39
-3.0
 10
95.823372
 20
0.0
 30
96.0
 11
95.823372
 21
0.0
 31
192.0
210
0.0
220
-1.0
230
0.0
  0
LINE
  8
WALLS
 39
-3.0
 10
0.0
 20
0.0
 30
96.0
 11
95.823372
 21
0.0
 31
96.0
210
0.0
220
-1.0
230
0.0
  0
ENDBLK
  8
TRIM
  0
BLOCK
  8
TRIM
  2
SOUTH
 70
    64
 10
0.0
 20
0.0
  0
LINE
  8
WINDOWS
 10
147.0
 20
75.0
 30
96.0
 11
147.0
 21
75.0
 31
0.0
210
0.0
220
-1.0
230
0.0
  0
LINE
  8
WINDOWS
 10
360.0
 20
75.0
 30
96.0
 11
147.0
 21
75.0
 31
96.0
210
0.0
220
-1.0
230
0.0
  0
LINE
  8
WINDOWS
 10
360.0
 20
75.0
 30
0.0
 11
360.0
 21
75.0
 31
96.0
210
0.0
220
-1.0
230
0.0
  0
LINE
  8
WINDOWS
 10
147.0
 20
75.0
 30
0.0
 11
360.0
 21
75.0
 31
0.0
210
0.0
220
-1.0
230
0.0
  0
LINE
  8
WINDOWS
 10
300.0
 20
3.0
 30
180.0
 11
300.0
 21
3.0
 31
108.0
210
0.0
220
-1.0
230
0.0
  0
LINE
  8
WINDOWS
 10
396.0
 20
3.0
 30
180.0
 11
300.0
 21
3.0
 31
180.0
210
0.0
220
-1.0
230
0.0
  0
LINE
  8
WINDOWS
 10
396.0
 20
3.0
 30
108.0
 11
396.0
 21
3.0
 31
180.0
210
0.0
220
-1.0
230
0.0
  0
LINE
  8
WINDOWS
 10
300.0
 20
3.0
 30
108.0
 11
396.0
 21
3.0
 31
108.0
210
0.0
220
-1.0
230
0.0
  0
LINE
  8
WALLS
 39
-3.0
 10
288.0
 20
0.0
 30
96.0
 11
288.0
 21
0.0
 31
192.0
210
0.0
220
-1.0
230
0.0
  0
LINE
  8
WALLS
 39
-3.0
 10
288.0
 20
0.0
 30
192.0
 11
396.0
 21
0.0
 31
192.0
210
0.0
220
-1.0
230
0.0
  0
LINE
  8
WALLS
 39
-3.0
 10
396.0
 20
0.0
 30
108.0
 11
396.0
 21
0.0
 31
96.0
210
0.0
220
-1.0
230
0.0
  0
LINE
  8
WALLS
 39
-3.0
 10
300.0
 20
0.0
 30
108.0
 11
396.0
 21
0.0
 31
108.0
210
0.0
220
-1.0
230
0.0
  0
LINE
  8
WALLS
 39
-3.0
 10
300.0
 20
0.0
 30
180.0
 11
300.0
 21
0.0
 31
108.0
210
0.0
220
-1.0
230
0.0
  0
LINE
  8
WALLS
 39
-3.0
 10
396.0
 20
0.0
 30
180.0
 11
300.0
 21
0.0
 31
180.0
210
0.0
220
-1.0
230
0.0
  0
LINE
  8
WALLS
 39
-3.0
 10
396.0
 20
0.0
 30
192.0
 11
396.0
 21
0.0
 31
180.0
210
0.0
220
-1.0
230
0.0
  0
LINE
  8
WALLS
 39
-3.0
 10
396.0
 20
0.0
 30
96.0
 11
288.0
 21
0.0
 31
96.0
210
0.0
220
-1.0
230
0.0
  0
ENDBLK
  8
TRIM
  0
BLOCK
  8
TRIM
  2
ROOF
 70
    64
 10
0.0
 20
0.0
  0
LINE
  8
ROOF
 10
0.0
 20
-0.353553
 30
0.353553
 11
504.0
 21
-0.353553
 31
0.353553
210
0.0
220
-0.7071067811865475
230
0.7071067811865475
  0
LINE
  8
ROOF
 10
504.0
 20
143.646449
 30
144.353556
 11
504.0
 21
-0.353553
 31
0.353553
210
0.0
220
-0.7071067811865475
230
0.7071067811865475
  0
LINE
  8
ROOF
 10
0.0
 20
143.646449
 30
144.353556
 11
504.0
 21
143.646449
 31
144.353556
210
0.0
220
-0.7071067811865475
230
0.7071067811865475
  0
LINE
  8
ROOF
 10
0.0
 20
-0.353553
 30
0.353553
 11
0.0
 21
143.646449
 31
144.353556
210
0.0
220
-0.7071067811865475
230
0.7071067811865475
  0
ENDBLK
  8
TRIM
  0
BLOCK
  8
TRIM
  2
BOARDSUP
 70
    64
 10
0.0
 20
0.0
  0
ARC
  8
CHROME
 39
1.5
 10
6.0
 20
6.0
 30
0.0
 40
3.0
 50
0.0
 51
90.0
210
0.0
220
-1.0
230
0.0
  0
ARC
  8
CHROME
 39
1.5
 10
-6.0
 20
6.0
 30
0.0
 40
3.0
 50
90.0
 51
180.0
210
0.0
220
-1.0
230
0.0
  0
ARC
  8
CHROME
 39
1.5
 10
6.0
 20
6.0
 30
0.0
 40
1.5
 50
0.0
 51
90.0
210
0.0
220
-1.0
230
0.0
  0
ARC
  8
CHROME
 39
1.5
 10
-6.0
 20
6.0
 30
0.0
 40
1.5
 50
90.0
 51
180.0
210
0.0
220
-1.0
230
0.0
  0
LINE
  8
CHROME
 39
1.5
 10
-7.5
 20
0.0
 30
0.0
 11
-9.0
 21
0.0
 31
0.0
210
0.0
220
-1.0
230
0.0
  0
LINE
  8
CHROME
 39
1.5
 10
-7.5
 20
0.0
 30
6.0
 11
-7.5
 21
0.0
 31
0.0
210
0.0
220
-1.0
230
0.0
  0
LINE
  8
CHROME
 39
1.5
 10
6.0
 20
0.0
 30
7.5
 11
-6.0
 21
0.0
 31
7.5
210
0.0
220
-1.0
230
0.0
  0
LINE
  8
CHROME
 39
1.5
 10
7.5
 20
0.0
 30
0.0
 11
7.5
 21
0.0
 31
6.0
210
0.0
220
-1.0
230
0.0
  0
LINE
  8
CHROME
 39
1.5
 10
9.0
 20
0.0
 30
0.0
 11
7.5
 21
0.0
 31
0.0
210
0.0
220
-1.0
230
0.0
  0
LINE
  8
CHROME
 39
1.5
 10
9.0
 20
0.0
 30
6.0
 11
9.0
 21
0.0
 31
0.0
210
0.0
220
-1.0
230
0.0
  0
LINE
  8
CHROME
 39
1.5
 10
-6.0
 20
0.0
 30
9.0
 11
6.0
 21
0.0
 31
9.0
210
0.0
220
-1.0
230
0.0
  0
LINE
  8
CHROME
 39
1.5
 10
-9.0
 20
0.0
 30
0.0
 11
-9.0
 21
0.0
 31
6.0
210
0.0
220
-1.0
230
0.0
  0
ENDBLK
  8
TRIM
  0
BLOCK
  8
BOARD
  2
BOARD
 70
    64
 10
-90.0
 20
-186.0
  0
LINE
  8
BOARD
 38
9.0
 39
1.0
 10
-138.0
 20
-180.0
 11
-138.0
 21
-192.0
  0
LINE
  8
BOARD
 38
9.0
 39
1.0
 10
-42.0
 20
-180.0
 11
-138.0
 21
-180.0
  0
LINE
  8
BOARD
 38
9.0
 39
1.0
 10
-42.0
 20
-192.0
 11
-42.0
 21
-180.0
  0
LINE
  8
BOARD
 38
9.0
 39
1.0
 10
-138.0
 20
-192.0
 11
-42.0
 21
-192.0
  0
INSERT
  8
CHROME
  2
BOARDSUP
 10
-96.0
 20
-186.0
 50
90.0
  0
INSERT
  8
CHROME
  2
BOARDSUP
 10
-132.0
 20
-186.0
 50
90.0
  0
ENDBLK
  8
BOARD
  0
BLOCK
  8
TRIM
  2
LADDER
 70
    64
 10
0.0
 20
0.0
  0
LINE
  8
CHROME
 39
1.5
 10
3.0
 20
0.0
 30
-6.0
 11
4.5
 21
0.0
 31
-6.0
210
0.0
220
-1.0
230
0.0
  0
LINE
  8
CHROME
 39
1.5
 10
-4.5
 20
0.0
 30
0.0
 11
-3.0
 21
0.0
 31
0.0
210
0.0
220
-1.0
230
0.0
  0
ARC
  8
CHROME
 39
1.5
 10
0.0
 20
4.136039
 30
0.0
 40
4.5
 50
0.0
 51
45.0
210
0.0
220
-1.0
230
0.0
  0
ARC
  8
CHROME
 39
1.5
 10
-1.5
 20
7.757359
 30
0.0
 40
1.5
 50
45.0
 51
180.0
210
0.0
220
-1.0
230
0.0
  0
ARC
  8
CHROME
 39
1.5
 10
0.0
 20
4.136039
 30
0.0
 40
3.0
 50
0.0
 51
45.0
210
0.0
220
-1.0
230
0.0
  0
ARC
  8
CHROME
 39
1.5
 10
-1.5
 20
7.757359
 30
0.0
 40
3.0
 50
45.0
 51
180.0
210
0.0
220
-1.0
230
0.0
  0
LINE
  8
CHROME
 39
1.5
 10
-0.43934
 20
0.0
 30
8.818019
 11
2.12132
 21
0.0
 31
6.257359
210
0.0
220
-1.0
230
0.0
  0
LINE
  8
CHROME
 39
1.5
 10
3.0
 20
0.0
 30
-6.0
 11
3.0
 21
0.0
 31
4.136039
210
0.0
220
-1.0
230
0.0
  0
LINE
  8
CHROME
 39
1.5
 10
-3.0
 20
0.0
 30
0.0
 11
-3.0
 21
0.0
 31
7.757359
210
0.0
220
-1.0
230
0.0
  0
LINE
  8
CHROME
 39
1.5
 10
4.5
 20
0.0
 30
4.136039
 11
4.5
 21
0.0
 31
-6.0
210
0.0
220
-1.0
230
0.0
  0
LINE
  8
CHROME
 39
1.5
 10
0.62132
 20
0.0
 30
9.87868
 11
3.181981
 21
0.0
 31
7.318019
210
0.0
220
-1.0
230
0.0
  0
LINE
  8
CHROME
 39
1.5
 10
-4.5
 20
0.0
 30
0.0
 11
-4.5
 21
0.0
 31
7.757359
210
0.0
220
-1.0
230
0.0
  0
ENDBLK
  8
TRIM
  0
BLOCK
  8
TRIM
  2
CHAIR
 70
    64
 10
0.0
 20
0.0
  0
LINE
  8
ARMS
 39
-1.5
 10
-12.0
 20
-10.5
 30
0.0
 11
-12.0
 21
-10.5
 31
19.5
210
0.0
220
-1.0
230
0.0
  0
LINE
  8
ARMS
 39
-1.5
 10
-6.0
 20
-10.5
 30
25.5
 11
6.0
 21
-10.5
 31
25.5
210
0.0
220
-1.0
230
0.0
  0
LINE
  8
ARMS
 39
-1.5
 10
12.0
 20
-10.5
 30
19.5
 11
12.0
 21
-10.5
 31
0.0
210
0.0
220
-1.0
230
0.0
  0
LINE
  8
ARMS
 39
-1.5
 10
12.0
 20
-10.5
 30
0.0
 11
9.0
 21
-10.5
 31
0.0
210
0.0
220
-1.0
230
0.0
  0
LINE
  8
ARMS
 39
-1.5
 10
9.0
 20
-10.5
 30
0.0
 11
9.0
 21
-10.5
 31
19.5
210
0.0
220
-1.0
230
0.0
  0
LINE
  8
ARMS
 39
-1.5
 10
6.0
 20
-10.5
 30
22.5
 11
-6.0
 21
-10.5
 31
22.5
210
0.0
220
-1.0
230
0.0
  0
LINE
  8
ARMS
 39
-1.5
 10
-9.0
 20
-10.5
 30
19.5
 11
-9.0
 21
-10.5
 31
0.0
210
0.0
220
-1.0
230
0.0
  0
LINE
  8
ARMS
 39
-1.5
 10
-9.0
 20
-10.5
 30
0.0
 11
-12.0
 21
-10.5
 31
0.0
210
0.0
220
-1.0
230
0.0
  0
ARC
  8
ARMS
 39
-1.5
 10
6.0
 20
19.5
 30
10.5
 40
6.0
 50
0.0
 51
90.0
210
0.0
220
-1.0
230
0.0
  0
ARC
  8
ARMS
 39
-1.5
 10
6.0
 20
19.5
 30
10.5
 40
3.0
 50
0.0
 51
90.0
210
0.0
220
-1.0
230
0.0
  0
ARC
  8
ARMS
 39
-1.5
 10
-6.0
 20
19.5
 30
10.5
 40
3.0
 50
90.0
 51
180.0
210
0.0
220
-1.0
230
0.0
  0
ARC
  8
ARMS
 39
-1.5
 10
-6.0
 20
19.5
 30
10.5
 40
6.0
 50
90.0
 51
180.0
210
0.0
220
-1.0
230
0.0
  0
LINE
  8
CUSHIONS
 39
18.0
 10
13.408673
 20
9.0
 30
18.591738
 11
13.277939
 21
9.0
 31
20.08603
210
0.0
220
-1.0
230
0.0
  0
LINE
  8
CUSHIONS
 39
18.0
 10
-10.5
 20
9.0
 30
16.5
 11
13.408673
 21
9.0
 31
18.591738
210
0.0
220
-1.0
230
0.0
  0
LINE
  8
CUSHIONS
 39
18.0
 10
-12.199537
 20
9.0
 30
35.925797
 11
-10.5
 21
9.0
 31
16.5
210
0.0
220
-1.0
230
0.0
  0
LINE
  8
CUSHIONS
 39
18.0
 10
-10.705245
 20
9.0
 30
36.05653
 11
-12.199537
 21
9.0
 31
35.925797
210
0.0
220
-1.0
230
0.0
  0
LINE
  8
CUSHIONS
 39
18.0
 10
-9.136442
 20
9.0
 30
18.125026
 11
-10.705245
 21
9.0
 31
36.05653
210
0.0
220
-1.0
230
0.0
  0
LINE
  8
CUSHIONS
 39
18.0
 10
13.277939
 20
9.0
 30
20.08603
 11
-9.136442
 21
9.0
 31
18.125026
210
0.0
220
-1.0
230
0.0
  0
ARC
  8
ARMS
 39
-1.5
 10
-6.0
 20
19.5
 30
-9.0
 40
6.0
 50
90.0
 51
180.0
210
0.0
220
-1.0
230
0.0
  0
ARC
  8
ARMS
 39
-1.5
 10
-6.0
 20
19.5
 30
-9.0
 40
3.0
 50
90.0
 51
180.0
210
0.0
220
-1.0
230
0.0
  0
ARC
  8
ARMS
 39
-1.5
 10
6.0
 20
19.5
 30
-9.0
 40
3.0
 50
0.0
 51
90.0
210
0.0
220
-1.0
230
0.0
  0
ARC
  8
ARMS
 39
-1.5
 10
6.0
 20
19.5
 30
-9.0
 40
6.0
 50
0.0
 51
90.0
210
0.0
220
-1.0
230
0.0
  0
LINE
  8
ARMS
 39
-1.5
 10
-9.0
 20
9.0
 30
0.0
 11
-12.0
 21
9.0
 31
0.0
210
0.0
220
-1.0
230
0.0
  0
LINE
  8
ARMS
 39
-1.5
 10
-9.0
 20
9.0
 30
19.5
 11
-9.0
 21
9.0
 31
0.0
210
0.0
220
-1.0
230
0.0
  0
LINE
  8
ARMS
 39
-1.5
 10
6.0
 20
9.0
 30
22.5
 11
-6.0
 21
9.0
 31
22.5
210
0.0
220
-1.0
230
0.0
  0
LINE
  8
ARMS
 39
-1.5
 10
9.0
 20
9.0
 30
0.0
 11
9.0
 21
9.0
 31
19.5
210
0.0
220
-1.0
230
0.0
  0
LINE
  8
ARMS
 39
-1.5
 10
12.0
 20
9.0
 30
0.0
 11
9.0
 21
9.0
 31
0.0
210
0.0
220
-1.0
230
0.0
  0
LINE
  8
ARMS
 39
-1.5
 10
12.0
 20
9.0
 30
19.5
 11
12.0
 21
9.0
 31
0.0
210
0.0
220
-1.0
230
0.0
  0
LINE
  8
ARMS
 39
-1.5
 10
-6.0
 20
9.0
 30
25.5
 11
6.0
 21
9.0
 31
25.5
210
0.0
220
-1.0
230
0.0
  0
LINE
  8
ARMS
 39
-1.5
 10
-12.0
 20
9.0
 30
0.0
 11
-12.0
 21
9.0
 31
19.5
210
0.0
220
-1.0
230
0.0
  0
ENDBLK
  8
TRIM
  0
BLOCK
  8
TRIM
  2
RAFT
 70
    64
 10
0.0
 20
0.0
  0
LINE
  8
FLOAT
 39
36.0
 10
-36.0
 20
0.0
 30
1.5
 11
-36.0
 21
0.0
 31
0.0
210
0.0
220
-1.0
230
0.0
  0
LINE
  8
FLOAT
 39
36.0
 10
33.0
 20
0.0
 30
1.5
 11
-36.0
 21
0.0
 31
1.5
210
0.0
220
-1.0
230
0.0
  0
ARC
  8
FLOAT
 39
36.0
 10
36.0
 20
3.75
 30
0.0
 40
3.75
 50
270.0
 51
216.869898
210
0.0
220
-1.0
230
0.0
  0
LINE
  8
FLOAT
 39
36.0
 10
-36.0
 20
0.0
 30
0.0
 11
36.0
 21
0.0
 31
0.0
210
0.0
220
-1.0
230
0.0
  0
ENDBLK
  8
TRIM
  0
ENDSEC
  0
SECTION
  2
ENTITIES
  0
ARC
  8
WALLS
 39
192.0
 10
468.0
 20
144.0
 40
108.0
 50
180.0
 51
0.0
  0
LINE
  8
WALLS
 38
264.0
 39
144.0
 10
288.0
 20
216.0
 11
324.0
 21
216.0
  0
LINE
  8
WALLS
 38
264.0
 39
144.0
 10
324.0
 20
216.0
 11
324.0
 21
270.0
  0
LINE
  8
WALLS
 38
264.0
 39
144.0
 10
324.0
 20
270.0
 11
288.0
 21
270.0
  0
LINE
  8
WALLS
 38
264.0
 39
144.0
 10
288.0
 20
270.0
 11
288.0
 21
216.0
  0
LINE
  8
WALLS
 39
96.0
 10
78.0
 20
72.0
 11
150.0
 21
144.0
  0
LINE
  8
WALLS
 38
96.0
 39
96.0
 10
288.0
 20
72.0
 11
0.0
 21
72.0
  0
LINE
  8
WALLS
 38
96.0
 39
96.0
 10
0.0
 20
72.0
 11
12.0
 21
84.0
  0
LINE
  8
WALLS
 39
96.0
 10
78.0
 20
72.0
 11
72.0
 21
72.0
  0
LINE
  8
WALLS
 38
96.0
 10
0.0
 20
72.0
 11
390.0
 21
72.0
  0
LINE
  8
WALLS
 38
96.0
 10
390.0
 20
72.0
 11
390.0
 21
147.0
  0
LINE
  8
WALLS
 38
96.0
 10
390.0
 20
147.0
 11
75.0
 21
147.0
  0
LINE
  8
WALLS
 38
96.0
 10
75.0
 20
147.0
 11
0.0
 21
72.0
  0
LINE
  8
WALLS
 38
192.0
 10
0.0
 20
72.0
 11
390.0
 21
72.0
  0
LINE
  8
WALLS
 38
192.0
 10
390.0
 20
72.0
 11
390.0
 21
144.0
  0
LINE
  8
WALLS
 38
192.0
 10
390.0
 20
144.0
 11
72.0
 21
144.0
  0
LINE
  8
WALLS
 38
192.0
 10
72.0
 20
144.0
 11
0.0
 21
72.0
  0
LINE
  8
WALLS
 39
192.0
 10
576.0
 20
144.0
 11
360.0
 21
144.0
  0
LINE
  8
WALLS
 39
96.0
 10
150.0
 20
144.0
 11
150.0
 21
147.0
  0
LINE
  8
WALLS
 39
192.0
 10
360.0
 20
144.0
 11
360.0
 21
147.0
  0
LINE
  8
SIDEWALK
 39
-6.0
 10
576.0
 20
144.0
 11
576.0
 21
432.000047
  0
LINE
  8
SIDEWALK
 39
-6.0
 10
576.0
 20
432.000047
 11
432.0
 21
432.0
  0
LINE
  8
SIDEWALK
 39
-6.0
 10
432.0
 20
432.0
 11
432.0
 21
576.0
  0
LINE
  8
SIDEWALK
 39
-6.0
 10
432.0
 20
576.0
 11
288.0
 21
576.0
  0
LINE
  8
SIDEWALK
 39
-6.0
 10
288.0
 20
576.0
 11
-267.973271
 21
1131.973271
  0
LINE
  8
SIDEWALK
 39
-6.0
 10
-267.973271
 20
1131.973271
 11
-303.973271
 21
1095.973271
  0
LINE
  8
SIDEWALK
 39
-6.0
 10
-303.973271
 20
1095.973271
 11
309.088312
 21
482.911688
  0
ARC
  8
SIDEWALK
 39
-6.0
 10
360.0
 20
432.0
 40
72.0
 50
135.0
 51
180.0
  0
LINE
  8
SIDEWALK
 39
-6.0
 10
288.0
 20
432.0
 11
72.0
 21
432.0
  0
LINE
  8
SIDEWALK
 39
-6.0
 10
72.0
 20
432.0
 11
72.0
 21
144.0
  0
LINE
  8
SIDEWALK
 39
-6.0
 10
72.0
 20
144.0
 11
0.0
 21
72.0
  0
CIRCLE
  8
GROUND
 38
-3.0
 10
360.0
 20
288.0
 40
4800.0
  0
INSERT
  8
WALLS
  2
SOUTH
 10
0.0
 20
72.0
  0
INSERT
  8
WALLS
  2
EAST
 10
576.0
 20
144.0
 50
90.0
  0
INSERT
  8
WALLS
  2
WEST
 10
72.0
 20
432.000047
 50
270.0
  0
INSERT
  8
WALLS
  2
WEST1
 10
72.0
 20
144.0
 50
225.0
  0
INSERT
  8
WALLS
 38
192.5
  2
ROOF
 10
72.0
 20
144.0
  0
INSERT
  8
WALLS
 38
192.5
  2
ROOF
 10
72.0
 20
288.0
  0
LINE
  8
SIDEWALK
 39
-6.0
 10
360.0
 20
0.0
 11
-72.0
 21
0.0
  0
LINE
  8
SIDEWALK
 39
-6.0
 10
-72.0
 20
0.0
 11
-72.0
 21
-216.0
  0
LINE
  8
SIDEWALK
 39
-6.0
 10
-72.0
 20
-216.0
 11
360.0
 21
-216.0
  0
LINE
  8
SIDEWALK
 39
-6.0
 10
360.0
 20
-216.0
 11
360.0
 21
0.0
  0
LINE
  8
SIDEWALK
 39
-6.0
 10
0.0
 20
72.0
 11
-144.0
 21
72.0
  0
LINE
  8
SIDEWALK
 39
-6.0
 10
-144.0
 20
72.0
 11
-144.0
 21
-252.0
  0
LINE
  8
SIDEWALK
 39
-6.0
 10
-144.0
 20
-252.0
 11
396.0
 21
-252.0
  0
LINE
  8
SIDEWALK
 39
-6.0
 10
396.0
 20
-252.0
 11
396.0
 21
36.0
  0
ARC
  8
SIDEWALK
 39
-6.0
 10
468.0
 20
144.0
 40
108.0
 50
270.0
 51
0.0
  0
LINE
  8
SIDEWALK
 39
-6.0
 10
468.0
 20
36.0
 11
396.0
 21
36.0
  0
LINE
  8
POOL
 38
-6.0
 10
-72.0
 20
-216.0
 11
360.0
 21
-216.0
  0
LINE
  8
POOL
 38
-6.0
 10
360.0
 20
-216.0
 11
360.0
 21
0.0
  0
LINE
  8
POOL
 38
-6.0
 10
360.0
 20
0.0
 11
-72.0
 21
0.0
  0
LINE
  8
POOL
 38
-6.0
 10
-72.0
 20
0.0
 11
-72.0
 21
-216.0
  0
LINE
  8
GROUND
 38
-3.0
 10
396.0
 20
36.0
 11
-108.0
 21
36.0
  0
LINE
  8
GROUND
 38
-3.0
 10
-108.0
 20
36.0
 11
-108.0
 21
-252.0
  0
LINE
  8
GROUND
 38
-3.0
 10
-108.0
 20
-252.0
 11
396.0
 21
-252.0
  0
LINE
  8
GROUND
 38
-3.0
 10
396.0
 20
-252.0
 11
396.0
 21
36.0
  0
INSERT
  8
BOARD
  2
BOARD
 10
-72.0
 20
-108.0
  0
INSERT
  8
ARMS
  2
LADDER
 10
72.0
 20
0.0
 50
270.0
  0
INSERT
  8
ARMS
  2
LADDER
 10
54.0
 20
0.0
 50
270.0
  0
INSERT
  8
SIDEWALK
  2
CHAIR
 10
322.443106
 20
76.737898
 50
245.610607
  0
INSERT
  8
SIDEWALK
  2
CHAIR
 10
253.896186
 20
72.521735
 50
315.970832
  0
INSERT
  8
FLOAT
 38
-6.0
  2
RAFT
 10
112.5
 20
-130.5
 50
332.744672
  0
INSERT
  8
0
  2
NORTH
 10
576.0
 20
432.0
 50
180.0
  0
INSERT
  8
0
  2
NORTH1
 10
576.0
 20
288.0
 50
180.0
  0
ENDSEC
  0
EOF
