  0
SECTION
  2
HEADER
  9
$ACADVER
  1
AC1006
  9
$INSBASE
 10
0.0
 20
0.0
 30
0.0
  9
$EXTMIN
 10
0.0
 20
0.0
  9
$EXTMAX
 10
240.0
 20
180.0
  9
$LIMMIN
 10
0.0
 20
0.0
  9
$LIMMAX
 10
240.0
 20
216.0
  9
$ORTHOMODE
 70
     0
  9
$REGENMODE
 70
     1
  9
$FILLMODE
 70
     0
  9
$QTEXTMODE
 70
     0
  9
$MIRRTEXT
 70
     1
  9
$DRAGMODE
 70
     2
  9
$LTSCALE
 40
1.0
  9
$OSMODE
 70
     0
  9
$ATTMODE
 70
     1
  9
$TEXTSIZE
 40
0.2
  9
$TRACEWID
 40
0.05
  9
$TEXTSTYLE
  7
STANDARD
  9
$CLAYER
  8
0
  9
$CELTYPE
  6
BYLAYER
  9
$CECOLOR
 62
   256
  9
$DIMSCALE
 40
1.0
  9
$DIMASZ
 40
0.18
  9
$DIMEXO
 40
0.0625
  9
$DIMDLI
 40
0.38
  9
$DIMRND
 40
0.0
  9
$DIMDLE
 40
0.0
  9
$DIMEXE
 40
0.18
  9
$DIMTP
 40
0.0
  9
$DIMTM
 40
0.0
  9
$DIMTXT
 40
0.18
  9
$DIMCEN
 40
0.09
  9
$DIMTSZ
 40
0.0
  9
$DIMTOL
 70
     0
  9
$DIMLIM
 70
     0
  9
$DIMTIH
 70
     1
  9
$DIMTOH
 70
     1
  9
$DIMSE1
 70
     0
  9
$DIMSE2
 70
     0
  9
$DIMTAD
 70
     0
  9
$DIMZIN
 70
     0
  9
$DIMBLK
  1

  9
$DIMASO
 70
     1
  9
$DIMSHO
 70
     0
  9
$DIMPOST
  1

  9
$DIMAPOST
  1

  9
$DIMALT
 70
     0
  9
$DIMALTD
 70
     2
  9
$DIMALTF
 40
25.4
  9
$DIMLFAC
 40
1.0
  9
$DIMTOFL
 70
     0
  9
$DIMTVP
 40
0.0
  9
$DIMTIX
 70
     0
  9
$DIMSOXD
 70
     0
  9
$DIMSAH
 70
     0
  9
$DIMBLK1
  1

  9
$DIMBLK2
  1

  9
$LUNITS
 70
     4
  9
$LUPREC
 70
     4
  9
$AXISMODE
 70
     0
  9
$AXISUNIT
 10
0.0
 20
0.0
  9
$SKETCHINC
 40
0.1
  9
$FILLETRAD
 40
0.0
  9
$AUNITS
 70
     0
  9
$AUPREC
 70
     0
  9
$MENU
  1
acad
  9
$ELEVATION
 40
0.0
  9
$THICKNESS
 40
0.0
  9
$LIMCHECK
 70
     0
  9
$BLIPMODE
 70
     1
  9
$CHAMFERA
 40
0.0
  9
$CHAMFERB
 40
0.0
  9
$SKPOLY
 70
     0
  9
$TDCREATE
 40
2447641.8299641204
  9
$TDUPDATE
 40
2448063.2632590276
  9
$TDINDWG
 40
0.0647097222
  9
$TDUSRTIMER
 40
0.0647097222
  9
$USRTIMER
 70
     1
  9
$ANGBASE
 50
0.0
  9
$ANGDIR
 70
     0
  9
$PDMODE
 70
     0
  9
$PDSIZE
 40
0.0
  9
$PLINEWID
 40
0.0
  9
$COORDS
 70
     2
  9
$SPLFRAME
 70
     0
  9
$SPLINETYPE
 70
     6
  9
$SPLINESEGS
 70
     8
  9
$ATTDIA
 70
     0
  9
$ATTREQ
 70
     1
  9
$HANDLING
 70
     0
  9
$HANDSEED
  5
0
  9
$SURFTAB1
 70
     6
  9
$SURFTAB2
 70
     6
  9
$SURFTYPE
 70
     6
  9
$SURFU
 70
     6
  9
$SURFV
 70
     6
  9
$FLATLAND
 70
     0
  9
$UCSNAME
  2

  9
$UCSORG
 10
0.0
 20
0.0
 30
0.0
  9
$UCSXDIR
 10
1.0
 20
0.0
 30
0.0
  9
$UCSYDIR
 10
0.0
 20
1.0
 30
0.0
  9
$USERI1
 70
     0
  9
$USERI2
 70
     0
  9
$USERI3
 70
     0
  9
$USERI4
 70
     0
  9
$USERI5
 70
     0
  9
$USERR1
 40
0.0
  9
$USERR2
 40
0.0
  9
$USERR3
 40
0.0
  9
$USERR4
 40
0.0
  9
$USERR5
 40
0.0
  9
$WORLDVIEW
 70
     1
  0
ENDSEC
  0
SECTION
  2
TABLES
  0
TABLE
  2
VPORT
 70
     2
  0
VPORT
  2
*ACTIVE
 70
     0
 10
0.0
 20
0.0
 11
1.0
 21
1.0
 12
124.26506
 22
90.0
 13
0.0
 23
0.0
 14
3.0
 24
3.0
 15
12.0
 25
12.0
 16
0.0
 26
0.0
 36
1.0
 17
0.0
 27
0.0
 37
0.0
 40
180.0
 41
1.380723
 42
50.0
 43
0.0
 44
0.0
 50
0.0
 51
0.0
 71
     0
 72
   100
 73
     1
 74
     1
 75
     1
 76
     1
 77
     0
 78
     0
  0
ENDTAB
  0
TABLE
  2
LTYPE
 70
     1
  0
LTYPE
  2
CONTINUOUS
 70
    64
  3
Solid line
 72
    65
 73
     0
 40
0.0
  0
ENDTAB
  0
TABLE
  2
LAYER
 70
    11
  0
LAYER
  2
0
 70
    64
 62
     7
  6
CONTINUOUS
  0
LAYER
  2
CEILING
 70
    64
 62
     1
  6
CONTINUOUS
  0
LAYER
  2
FLOOR
 70
    64
 62
     3
  6
CONTINUOUS
  0
LAYER
  2
WALLS
 70
    64
 62
     4
  6
CONTINUOUS
  0
LAYER
  2
PICTURE
 70
    64
 62
     5
  6
CONTINUOUS
  0
LAYER
  2
FRAME
 70
    64
 62
     6
  6
CONTINUOUS
  0
LAYER
  2
CUSHIONS
 70
    64
 62
     1
  6
CONTINUOUS
  0
LAYER
  2
LEGS
 70
    64
 62
     7
  6
CONTINUOUS
  0
LAYER
  2
TABLE
 70
    64
 62
     7
  6
CONTINUOUS
  0
LAYER
  2
MIRROR
 70
    64
 62
     7
  6
CONTINUOUS
  0
LAYER
  2
MALE-CASUAL
 70
    64
 62
     6
  6
CONTINUOUS
  0
ENDTAB
  0
TABLE
  2
STYLE
 70
     1
  0
STYLE
  2
STANDARD
 70
     0
 40
0.0
 41
1.0
 50
0.0
 71
     0
 42
0.2
  3
txt
  4

  0
ENDTAB
  0
TABLE
  2
VIEW
 70
     0
  0
ENDTAB
  0
TABLE
  2
UCS
 70
     2
  0
UCS
  2
NORTH-WALL
 70
     0
 10
0.0
 20
174.0
 30
0.0
 11
1.0
 21
0.0
 31
0.0
 12
0.0
 22
0.0
 32
1.0
  0
UCS
  2
WEST-WALL
 70
     0
 10
6.0
 20
0.0
 30
0.0
 11
0.0
 21
1.0
 31
0.0
 12
0.0
 22
0.0
 32
1.0
  0
ENDTAB
  0
TABLE
  2
DWGMGR
 70
     0
  0
ENDTAB
  0
ENDSEC
  0
SECTION
  2
BLOCKS
  0
BLOCK
  8
PICTURE
  2
PICTURE
 70
    64
 10
0.0
 20
0.0
 30
0.0
  0
LINE
  8
PICTURE
 10
0.0
 20
48.0
 30
1.0
 11
0.0
 21
0.0
 31
1.0
  0
LINE
  8
PICTURE
 10
0.0
 20
0.0
 30
1.0
 11
48.0
 21
0.0
 31
1.0
  0
LINE
  8
PICTURE
 10
48.0
 20
0.0
 30
1.0
 11
48.0
 21
48.0
 31
1.0
  0
LINE
  8
PICTURE
 10
48.0
 20
48.0
 30
1.0
 11
0.0
 21
48.0
 31
1.0
  0
ENDBLK
  8
PICTURE
  0
BLOCK
  8
CUSHIONS
  2
BARCELON
 70
    64
 10
0.0
 20
0.0
 30
0.0
  0
ARC
  8
CUSHIONS
 39
30.0
 10
-17.681818
 20
32.681818
 30
-15.0
 40
29.802726
 50
319.211948
 51
354.837217
210
0.0
220
-1.0
230
0.0
  0
LINE
  8
CUSHIONS
 39
30.0
 10
13.774122
 20
15.0
 30
30.01912
 11
12.0
 21
15.0
 31
30.0
210
0.0
220
-1.0
230
0.0
  0
LINE
  8
CUSHIONS
 39
30.0
 10
7.0
 20
15.0
 30
13.0
 11
4.882758
 21
15.0
 31
13.212808
210
0.0
220
-1.0
230
0.0
  0
ARC
  8
CUSHIONS
 39
30.0
 10
-17.681818
 20
32.681818
 30
-15.0
 40
31.568435
 50
321.430381
 51
355.161533
210
0.0
220
-1.0
230
0.0
  0
LINE
  8
CUSHIONS
 39
30.0
 10
-15.0
 20
15.0
 30
17.0
 11
-15.0
 21
15.0
 31
15.0
210
0.0
220
-1.0
230
0.0
  0
LINE
  8
CUSHIONS
 39
30.0
 10
6.0
 20
15.0
 30
13.0
 11
-15.0
 21
15.0
 31
17.0
210
0.0
220
-1.0
230
0.0
  0
LINE
  8
CUSHIONS
 39
30.0
 10
6.0
 20
15.0
 30
11.0
 11
6.0
 21
15.0
 31
13.0
210
0.0
220
-1.0
230
0.0
  0
LINE
  8
CUSHIONS
 39
30.0
 10
-15.0
 20
15.0
 30
15.0
 11
6.0
 21
15.0
 31
11.0
210
0.0
220
-1.0
230
0.0
  0
LINE
  8
LEGS
 39
2.0
 10
15.0
 20
-12.0
 30
0.0
 11
15.0
 21
-12.0
 31
1.0
210
0.0
220
-1.0
230
0.0
  0
LINE
  8
LEGS
 39
2.0
 10
14.0
 20
-12.0
 30
30.0
 11
15.0
 21
-12.0
 31
30.0
210
0.0
220
-1.0
230
0.0
  0
LINE
  8
LEGS
 39
2.0
 10
-15.0
 20
-12.0
 30
0.0
 11
-15.0
 21
-12.0
 31
1.0
210
0.0
220
-1.0
230
0.0
  0
LINE
  8
LEGS
 39
2.0
 10
-15.0
 20
-12.0
 30
14.0
 11
-15.0
 21
-12.0
 31
15.0
210
0.0
220
-1.0
230
0.0
  0
ARC
  8
LEGS
 39
2.0
 10
-17.681818
 20
32.681818
 30
12.0
 40
32.791666
 50
274.69109
 51
355.30891
210
0.0
220
-1.0
230
0.0
  0
ARC
  8
LEGS
 39
2.0
 10
-17.681818
 20
32.681818
 30
12.0
 40
31.795122
 50
274.838467
 51
355.161533
210
0.0
220
-1.0
230
0.0
  0
ARC
  8
LEGS
 39
2.0
 10
-22.9
 20
-23.85
 30
12.0
 40
39.645082
 50
51.091915
 51
78.505837
210
0.0
220
-1.0
230
0.0
  0
ARC
  8
LEGS
 39
2.0
 10
20.414502
 20
29.814755
 30
12.0
 40
29.319054
 50
231.091915
 51
259.357804
210
0.0
220
-1.0
230
0.0
  0
ARC
  8
LEGS
 39
2.0
 10
-22.9
 20
-23.85
 30
12.0
 40
38.66565
 50
51.633456
 51
78.210555
210
0.0
220
-1.0
230
0.0
  0
ARC
  8
LEGS
 39
2.0
 10
20.414502
 20
29.814755
 30
12.0
 40
30.302416
 50
230.400907
 51
259.706989
210
0.0
220
-1.0
230
0.0
  0
LINE
  8
LEGS
 39
2.0
 10
14.0
 20
14.0
 30
30.0
 11
15.0
 21
14.0
 31
30.0
210
0.0
220
-1.0
230
0.0
  0
LINE
  8
LEGS
 39
2.0
 10
15.0
 20
14.0
 30
0.0
 11
15.0
 21
14.0
 31
1.0
210
0.0
220
-1.0
230
0.0
  0
LINE
  8
LEGS
 39
2.0
 10
-15.0
 20
14.0
 30
14.0
 11
-15.0
 21
14.0
 31
15.0
210
0.0
220
-1.0
230
0.0
  0
LINE
  8
LEGS
 39
2.0
 10
-15.0
 20
14.0
 30
0.0
 11
-15.0
 21
14.0
 31
1.0
210
0.0
220
-1.0
230
0.0
  0
ARC
  8
LEGS
 39
2.0
 10
20.414502
 20
29.814755
 30
-14.0
 40
30.302416
 50
230.400907
 51
259.706989
210
0.0
220
-1.0
230
0.0
  0
ARC
  8
LEGS
 39
2.0
 10
-22.9
 20
-23.85
 30
-14.0
 40
38.66565
 50
51.633456
 51
78.210555
210
0.0
220
-1.0
230
0.0
  0
ARC
  8
LEGS
 39
2.0
 10
20.414502
 20
29.814755
 30
-14.0
 40
29.319054
 50
231.091915
 51
259.357804
210
0.0
220
-1.0
230
0.0
  0
ARC
  8
LEGS
 39
2.0
 10
-22.9
 20
-23.85
 30
-14.0
 40
39.645082
 50
51.091915
 51
78.505837
210
0.0
220
-1.0
230
0.0
  0
ARC
  8
LEGS
 39
2.0
 10
-17.681818
 20
32.681818
 30
-14.0
 40
31.795122
 50
274.838467
 51
355.161533
210
0.0
220
-1.0
230
0.0
  0
ARC
  8
LEGS
 39
2.0
 10
-17.681818
 20
32.681818
 30
-14.0
 40
32.791666
 50
274.69109
 51
355.30891
210
0.0
220
-1.0
230
0.0
  0
ENDBLK
  8
CUSHIONS
  0
BLOCK
  8
TABLE
  2
TABLE
 70
    64
 10
0.0
 20
0.0
 30
0.0
  0
LINE
  8
TABLE
 39
15.0
 10
-18.0
 20
-36.0
 30
3.0
 11
18.0
 21
-36.0
 31
3.0
  0
LINE
  8
TABLE
 39
15.0
 10
18.0
 20
-36.0
 30
3.0
 11
18.0
 21
36.0
 31
3.0
  0
LINE
  8
TABLE
 39
15.0
 10
18.0
 20
36.0
 30
3.0
 11
-18.0
 21
36.0
 31
3.0
  0
LINE
  8
TABLE
 39
15.0
 10
-18.0
 20
36.0
 30
3.0
 11
-18.0
 21
-36.0
 31
3.0
  0
LINE
  8
TABLE
 39
3.0
 10
-12.0
 20
-30.0
 30
0.0
 11
12.0
 21
-30.0
 31
0.0
  0
LINE
  8
TABLE
 39
3.0
 10
12.0
 20
-30.0
 30
0.0
 11
12.0
 21
30.0
 31
0.0
  0
LINE
  8
TABLE
 39
3.0
 10
12.0
 20
30.0
 30
0.0
 11
-12.0
 21
30.0
 31
0.0
  0
LINE
  8
TABLE
 39
3.0
 10
-12.0
 20
30.0
 30
0.0
 11
-12.0
 21
-30.0
 31
0.0
  0
ENDBLK
  8
TABLE
  0
BLOCK
  8
0
  2
MALE
 70
    64
 10
0.0
 20
0.0
 30
0.0
  0
LINE
  8
MALE-CASUAL
 10
0.0
 20
0.0
 30
0.0
 11
24.0
 21
0.0
 31
0.0
210
0.0
220
-1.0
230
-0.0000000000000002
  0
LINE
  8
MALE-CASUAL
 10
24.0
 20
0.0
 30
0.0
 11
24.0
 21
-0.0
 31
75.0
210
0.0
220
-1.0
230
-0.0000000000000002
  0
LINE
  8
MALE-CASUAL
 10
24.0
 20
-0.0
 30
75.0
 11
0.0
 21
-0.0
 31
75.0
210
0.0
220
-1.0
230
-0.0000000000000002
  0
LINE
  8
MALE-CASUAL
 10
0.0
 20
-0.0
 30
75.0
 11
0.0
 21
0.0
 31
0.0
210
0.0
220
-1.0
230
-0.0000000000000002
  0
ENDBLK
  8
0
  0
ENDSEC
  0
SECTION
  2
ENTITIES
  0
LINE
  8
FLOOR
 10
0.0
 20
0.0
 30
0.0
 11
240.0
 21
0.0
 31
0.0
  0
LINE
  8
FLOOR
 10
240.0
 20
0.0
 30
0.0
 11
240.0
 21
180.0
 31
0.0
  0
LINE
  8
FLOOR
 10
240.0
 20
180.0
 30
0.0
 11
0.0
 21
180.0
 31
0.0
  0
LINE
  8
FLOOR
 10
0.0
 20
180.0
 30
0.0
 11
0.0
 21
0.0
 31
0.0
  0
LINE
  8
CEILING
 10
0.0
 20
0.0
 30
96.0
 11
240.0
 21
0.0
 31
96.0
  0
LINE
  8
CEILING
 10
240.0
 20
0.0
 30
96.0
 11
240.0
 21
180.0
 31
96.0
  0
LINE
  8
CEILING
 10
240.0
 20
180.0
 30
96.0
 11
0.0
 21
180.0
 31
96.0
  0
LINE
  8
CEILING
 10
0.0
 20
180.0
 30
96.0
 11
0.0
 21
0.0
 31
96.0
  0
LINE
  8
WALLS
 39
96.0
 10
6.0
 20
6.0
 30
0.0
 11
6.0
 21
174.0
 31
0.0
  0
LINE
  8
WALLS
 39
96.0
 10
6.0
 20
174.0
 30
0.0
 11
234.0
 21
174.0
 31
0.0
  0
LINE
  8
FRAME
 39
2.0
 10
72.0
 20
174.0
 30
24.0
 11
132.0
 21
174.0
 31
24.0
210
0.0
220
-1.0
230
0.0
  0
LINE
  8
FRAME
 39
2.0
 10
132.0
 20
174.0
 30
24.0
 11
132.0
 21
174.0
 31
84.0
210
0.0
220
-1.0
230
0.0
  0
LINE
  8
FRAME
 39
2.0
 10
132.0
 20
174.0
 30
84.0
 11
72.0
 21
174.0
 31
84.0
210
0.0
220
-1.0
230
0.0
  0
LINE
  8
FRAME
 39
2.0
 10
72.0
 20
174.0
 30
84.0
 11
72.0
 21
174.0
 31
24.0
210
0.0
220
-1.0
230
0.0
  0
LINE
  8
FRAME
 39
2.0
 10
78.0
 20
174.0
 30
30.0
 11
126.0
 21
174.0
 31
30.0
210
0.0
220
-1.0
230
0.0
  0
LINE
  8
FRAME
 39
2.0
 10
126.0
 20
174.0
 30
30.0
 11
126.0
 21
174.0
 31
78.0
210
0.0
220
-1.0
230
0.0
  0
LINE
  8
FRAME
 39
2.0
 10
126.0
 20
174.0
 30
78.0
 11
78.0
 21
174.0
 31
78.0
210
0.0
220
-1.0
230
0.0
  0
LINE
  8
FRAME
 39
2.0
 10
78.0
 20
174.0
 30
78.0
 11
78.0
 21
174.0
 31
30.0
210
0.0
220
-1.0
230
0.0
  0
CIRCLE
  8
CEILING
 10
48.0
 20
60.0
 30
96.0
 40
3.0
  0
CIRCLE
  8
CEILING
 10
48.0
 20
132.0
 30
96.0
 40
3.0
  0
CIRCLE
  8
CEILING
 10
120.0
 20
132.0
 30
96.0
 40
3.0
  0
CIRCLE
  8
CEILING
 10
120.0
 20
60.0
 30
96.0
 40
3.0
  0
INSERT
  8
PICTURE
  2
PICTURE
 10
78.0
 20
30.0
 30
-174.0
210
0.0
220
-1.0
230
0.0
  0
INSERT
  8
CUSHIONS
  2
BARCELON
 10
60.0
 20
132.0
 30
0.0
 50
122.347443
  0
INSERT
  8
CUSHIONS
  2
BARCELON
 10
64.0
 20
68.0
 30
0.0
 50
199.653824
  0
INSERT
  8
TABLE
  2
TABLE
 10
120.0
 20
108.0
 30
0.0
  0
LINE
  8
WALLS
 39
96.0
 10
234.0
 20
174.0
 30
0.0
 11
234.0
 21
3.0
 31
0.0
  0
LINE
  8
WALLS
 39
96.0
 10
237.0
 20
6.0
 30
0.0
 11
6.0
 21
6.0
 31
0.0
  0
ARC
  8
CEILING
 39
12.0
 10
120.0
 20
60.0
 30
96.0
 40
3.0
 50
0.0
 51
359.0
  0
ARC
  8
CEILING
 39
12.0
 10
120.0
 20
132.0
 30
96.0
 40
3.0
 50
0.0
 51
359.0
  0
ARC
  8
CEILING
 39
12.0
 10
48.0
 20
60.0
 30
96.0
 40
3.0
 50
0.0
 51
359.0
  0
ARC
  8
CEILING
 39
12.0
 10
48.0
 20
132.0
 30
96.0
 40
3.0
 50
0.0
 51
359.0
  0
LINE
  8
MIRROR
 39
0.5
 10
6.0
 20
144.0
 30
84.0
 11
6.0
 21
144.0
 31
24.0
210
1.0
220
0.0
230
0.0
  0
LINE
  8
MIRROR
 39
0.5
 10
6.0
 20
144.0
 30
24.0
 11
6.0
 21
36.0
 31
24.0
210
1.0
220
0.0
230
0.0
  0
LINE
  8
MIRROR
 39
0.5
 10
6.0
 20
36.0
 30
24.0
 11
6.0
 21
36.0
 31
84.0
210
1.0
220
0.0
230
0.0
  0
LINE
  8
MIRROR
 39
0.5
 10
6.0
 20
36.0
 30
84.0
 11
6.0
 21
144.0
 31
84.0
210
1.0
220
0.0
230
0.0
  0
INSERT
  8
0
  2
MALE
 10
84.0
 20
24.0
 30
0.0
 50
90.0
  0
ENDSEC
  0
EOF
