  0
SECTION
  2
HEADER
  9
$ACADVER
  1
AC1006
  9
$INSBASE
 10
0.0
 20
0.0
 30
0.0
  9
$EXTMIN
 10
0.0
 20
0.0
  9
$EXTMAX
 10
72.0
 20
72.0
  9
$LIMMIN
 10
0.0
 20
0.0
  9
$LIMMAX
 10
60.0
 20
45.0
  9
$ORTHOMODE
 70
     1
  9
$REGENMODE
 70
     1
  9
$FILLMODE
 70
     1
  9
$QTEXTMODE
 70
     0
  9
$MIRRTEXT
 70
     1
  9
$DRAGMODE
 70
     2
  9
$LTSCALE
 40
1.0
  9
$OSMODE
 70
     0
  9
$ATTMODE
 70
     1
  9
$TEXTSIZE
 40
0.2
  9
$TRACEWID
 40
0.05
  9
$TEXTSTYLE
  7
STANDARD
  9
$CLAYER
  8
BASE
  9
$CELTYPE
  6
BYLAYER
  9
$CECOLOR
 62
   256
  9
$DIMSCALE
 40
1.0
  9
$DIMASZ
 40
0.18
  9
$DIMEXO
 40
0.0625
  9
$DIMDLI
 40
0.38
  9
$DIMRND
 40
0.0
  9
$DIMDLE
 40
0.0
  9
$DIMEXE
 40
0.18
  9
$DIMTP
 40
0.0
  9
$DIMTM
 40
0.0
  9
$DIMTXT
 40
0.18
  9
$DIMCEN
 40
0.09
  9
$DIMTSZ
 40
0.0
  9
$DIMTOL
 70
     0
  9
$DIMLIM
 70
     0
  9
$DIMTIH
 70
     1
  9
$DIMTOH
 70
     1
  9
$DIMSE1
 70
     0
  9
$DIMSE2
 70
     0
  9
$DIMTAD
 70
     0
  9
$DIMZIN
 70
     0
  9
$DIMBLK
  1

  9
$DIMASO
 70
     1
  9
$DIMSHO
 70
     0
  9
$DIMPOST
  1

  9
$DIMAPOST
  1

  9
$DIMALT
 70
     0
  9
$DIMALTD
 70
     2
  9
$DIMALTF
 40
25.4
  9
$DIMLFAC
 40
1.0
  9
$DIMTOFL
 70
     0
  9
$DIMTVP
 40
0.0
  9
$DIMTIX
 70
     0
  9
$DIMSOXD
 70
     0
  9
$DIMSAH
 70
     0
  9
$DIMBLK1
  1

  9
$DIMBLK2
  1

  9
$LUNITS
 70
     2
  9
$LUPREC
 70
     4
  9
$AXISMODE
 70
     0
  9
$AXISUNIT
 10
0.0
 20
0.0
  9
$SKETCHINC
 40
0.1
  9
$FILLETRAD
 40
0.0
  9
$AUNITS
 70
     0
  9
$AUPREC
 70
     0
  9
$MENU
  1
acad
  9
$ELEVATION
 40
0.0
  9
$THICKNESS
 40
0.0
  9
$LIMCHECK
 70
     0
  9
$BLIPMODE
 70
     1
  9
$CHAMFERA
 40
0.0
  9
$CHAMFERB
 40
0.0
  9
$SKPOLY
 70
     0
  9
$TDCREATE
 40
2447588.7060678243
  9
$TDUPDATE
 40
2447811.6924158563
  9
$TDINDWG
 40
0.0184793981
  9
$TDUSRTIMER
 40
0.0184793981
  9
$USRTIMER
 70
     1
  9
$ANGBASE
 50
0.0
  9
$ANGDIR
 70
     0
  9
$PDMODE
 70
     0
  9
$PDSIZE
 40
0.0
  9
$PLINEWID
 40
0.0
  9
$COORDS
 70
     2
  9
$SPLFRAME
 70
     0
  9
$SPLINETYPE
 70
     6
  9
$SPLINESEGS
 70
     8
  9
$ATTDIA
 70
     0
  9
$ATTREQ
 70
     1
  9
$HANDLING
 70
     0
  9
$HANDSEED
  5
0
  9
$SURFTAB1
 70
     6
  9
$SURFTAB2
 70
     6
  9
$SURFTYPE
 70
     6
  9
$SURFU
 70
     6
  9
$SURFV
 70
     6
  9
$FLATLAND
 70
     0
  9
$UCSNAME
  2

  9
$UCSORG
 10
0.0
 20
0.0
 30
0.0
  9
$UCSXDIR
 10
1.0
 20
0.0
 30
0.0
  9
$UCSYDIR
 10
0.0
 20
1.0
 30
0.0
  9
$USERI1
 70
     0
  9
$USERI2
 70
     0
  9
$USERI3
 70
     0
  9
$USERI4
 70
     0
  9
$USERI5
 70
     0
  9
$USERR1
 40
0.0
  9
$USERR2
 40
0.0
  9
$USERR3
 40
0.0
  9
$USERR4
 40
0.0
  9
$USERR5
 40
0.0
  9
$WORLDVIEW
 70
     0
  0
ENDSEC
  0
SECTION
  2
TABLES
  0
TABLE
  2
VPORT
 70
     2
  0
VPORT
  2
*ACTIVE
 70
     0
 10
0.0
 20
0.0
 11
1.0
 21
1.0
 12
49.919277
 22
34.5
 13
0.0
 23
0.0
 14
1.0
 24
1.0
 15
4.0
 25
4.0
 16
0.0
 26
0.0
 36
1.0
 17
0.0
 27
0.0
 37
0.0
 40
81.0
 41
1.380723
 42
50.0
 43
0.0
 44
0.0
 50
0.0
 51
0.0
 71
     0
 72
   100
 73
     1
 74
     1
 75
     1
 76
     1
 77
     0
 78
     0
  0
ENDTAB
  0
TABLE
  2
LTYPE
 70
     1
  0
LTYPE
  2
CONTINUOUS
 70
    64
  3
Solid line
 72
    65
 73
     0
 40
0.0
  0
ENDTAB
  0
TABLE
  2
LAYER
 70
     3
  0
LAYER
  2
0
 70
     0
 62
     7
  6
CONTINUOUS
  0
LAYER
  2
BASE
 70
    64
 62
     7
  6
CONTINUOUS
  0
LAYER
  2
LETTERS
 70
    64
 62
     5
  6
CONTINUOUS
  0
ENDTAB
  0
TABLE
  2
STYLE
 70
     1
  0
STYLE
  2
STANDARD
 70
     0
 40
0.0
 41
1.0
 50
0.0
 71
     0
 42
0.2
  3
txt
  4

  0
ENDTAB
  0
TABLE
  2
VIEW
 70
     0
  0
ENDTAB
  0
TABLE
  2
UCS
 70
     1
  0
UCS
  2
FRONT
 70
     0
 10
20.0
 20
32.9989999999999952
 30
0.001
 11
1.0
 21
0.0
 31
0.0
 12
0.0
 22
0.0
 32
1.0
  0
ENDTAB
  0
TABLE
  2
DWGMGR
 70
     0
  0
ENDTAB
  0
ENDSEC
  0
SECTION
  2
BLOCKS
  0
BLOCK
  8
LETTERS
 39
2.0
  2
B
 70
    64
 10
0.0
 20
0.0
 30
0.0
  0
LINE
  8
LETTERS
 39
-6.0
 10
1.5
 20
6.0
 30
0.0
 11
1.5
 21
1.5
 31
0.0
  0
LINE
  8
LETTERS
 39
-6.0
 10
3.75
 20
6.0
 30
0.0
 11
1.5
 21
6.0
 31
0.0
  0
ARC
  8
LETTERS
 39
-6.0
 10
3.75
 20
3.75
 30
0.0
 40
2.25
 50
270.0
 51
90.0
  0
LINE
  8
LETTERS
 39
-6.0
 10
1.5
 20
1.5
 30
0.0
 11
3.75
 21
1.5
 31
0.0
  0
LINE
  8
LETTERS
 39
-6.0
 10
1.5
 20
7.5
 30
0.0
 11
1.5
 21
10.5
 31
0.0
  0
LINE
  8
LETTERS
 39
-6.0
 10
3.75
 20
7.5
 30
0.0
 11
1.5
 21
7.5
 31
0.0
  0
ARC
  8
LETTERS
 39
-6.0
 10
3.75
 20
9.0
 30
0.0
 40
1.5
 50
270.0
 51
90.0
  0
LINE
  8
LETTERS
 39
-6.0
 10
1.5
 20
10.5
 30
0.0
 11
3.75
 21
10.5
 31
0.0
  0
ARC
  8
LETTERS
 39
-6.0
 10
3.75
 20
3.75
 30
0.0
 40
3.75
 50
270.0
 51
55.952268
  0
LINE
  8
LETTERS
 39
-6.0
 10
0.0
 20
0.0
 30
0.0
 11
3.75
 21
0.0
 31
0.0
  0
ARC
  8
LETTERS
 39
-6.0
 10
3.75
 20
9.0
 30
0.0
 40
3.0
 50
314.415309
 51
90.0
  0
LINE
  8
LETTERS
 39
-6.0
 10
0.0
 20
12.0
 30
0.0
 11
3.75
 21
12.0
 31
0.0
  0
LINE
  8
LETTERS
 39
-6.0
 10
0.0
 20
0.0
 30
0.0
 11
0.0
 21
12.0
 31
0.0
  0
ENDBLK
  8
LETTERS
 39
2.0
  0
BLOCK
  8
LETTERS
 39
2.0
  2
I
 70
    64
 10
0.0
 20
0.0
 30
0.0
  0
LINE
  8
LETTERS
 39
-6.0
 10
0.0
 20
12.0
 30
0.0
 11
0.0
 21
0.0
 31
0.0
  0
LINE
  8
LETTERS
 39
-6.0
 10
1.5
 20
12.0
 30
0.0
 11
0.0
 21
12.0
 31
0.0
  0
LINE
  8
LETTERS
 39
-6.0
 10
1.5
 20
0.0
 30
0.0
 11
1.5
 21
12.0
 31
0.0
  0
LINE
  8
LETTERS
 39
-6.0
 10
0.0
 20
0.0
 30
0.0
 11
1.5
 21
0.0
 31
0.0
  0
ENDBLK
  8
LETTERS
 39
2.0
  0
BLOCK
  8
LETTERS
 39
2.0
  2
G
 70
    64
 10
0.0
 20
0.0
 30
0.0
  0
LINE
  8
LETTERS
 39
-6.0
 10
3.75
 20
6.0
 30
0.0
 11
7.5
 21
6.0
 31
0.0
  0
LINE
  8
LETTERS
 39
-6.0
 10
3.75
 20
4.5
 30
0.0
 11
3.75
 21
6.0
 31
0.0
  0
LINE
  8
LETTERS
 39
-6.0
 10
6.0
 20
4.5
 30
0.0
 11
3.75
 21
4.5
 31
0.0
  0
LINE
  8
LETTERS
 39
-6.0
 10
6.0
 20
3.75
 30
0.0
 11
6.0
 21
4.5
 31
0.0
  0
ARC
  8
LETTERS
 39
-6.0
 10
3.75
 20
3.75
 30
0.0
 40
2.25
 50
180.0
 51
0.0
  0
LINE
  8
LETTERS
 39
-6.0
 10
1.5
 20
8.25
 30
0.0
 11
1.5
 21
3.75
 31
0.0
  0
ARC
  8
LETTERS
 39
-6.0
 10
3.75
 20
8.25
 30
0.0
 40
2.25
 50
0.0
 51
180.0
  0
LINE
  8
LETTERS
 39
-6.0
 10
7.5
 20
8.25
 30
0.0
 11
6.0
 21
8.25
 31
0.0
  0
ARC
  8
LETTERS
 39
-6.0
 10
3.75
 20
8.25
 30
0.0
 40
3.75
 50
0.0
 51
180.0
  0
LINE
  8
LETTERS
 39
-6.0
 10
0.0
 20
3.75
 30
0.0
 11
0.0
 21
8.25
 31
0.0
  0
ARC
  8
LETTERS
 39
-6.0
 10
3.75
 20
3.75
 30
0.0
 40
3.75
 50
180.0
 51
0.0
  0
LINE
  8
LETTERS
 39
-6.0
 10
7.5
 20
6.0
 30
0.0
 11
7.5
 21
3.75
 31
0.0
  0
ENDBLK
  8
LETTERS
 39
2.0
  0
BLOCK
  8
LETTERS
 39
2.0
  2
D
 70
    64
 10
0.0
 20
0.0
 30
0.0
  0
LINE
  8
LETTERS
 39
-6.0
 10
1.5
 20
10.5
 30
0.0
 11
1.5
 21
1.5
 31
0.0
  0
LINE
  8
LETTERS
 39
-6.0
 10
3.75
 20
10.5
 30
0.0
 11
1.5
 21
10.5
 31
0.0
  0
ARC
  8
LETTERS
 39
-6.0
 10
3.75
 20
8.25
 30
0.0
 40
2.25
 50
0.0
 51
90.0
  0
LINE
  8
LETTERS
 39
-6.0
 10
6.0
 20
3.75
 30
0.0
 11
6.0
 21
8.25
 31
0.0
  0
ARC
  8
LETTERS
 39
-6.0
 10
3.75
 20
3.75
 30
0.0
 40
2.25
 50
270.0
 51
0.0
  0
LINE
  8
LETTERS
 39
-6.0
 10
1.5
 20
1.5
 30
0.0
 11
3.75
 21
1.5
 31
0.0
  0
LINE
  8
LETTERS
 39
-6.0
 10
0.0
 20
12.0
 30
0.0
 11
0.0
 21
0.0
 31
0.0
  0
LINE
  8
LETTERS
 39
-6.0
 10
3.75
 20
12.0
 30
0.0
 11
0.0
 21
12.0
 31
0.0
  0
ARC
  8
LETTERS
 39
-6.0
 10
3.75
 20
8.25
 30
0.0
 40
3.75
 50
0.0
 51
90.0
  0
LINE
  8
LETTERS
 39
-6.0
 10
7.5
 20
3.75
 30
0.0
 11
7.5
 21
8.25
 31
0.0
  0
ARC
  8
LETTERS
 39
-6.0
 10
3.75
 20
3.75
 30
0.0
 40
3.75
 50
270.0
 51
0.0
  0
LINE
  8
LETTERS
 39
-6.0
 10
0.0
 20
0.0
 30
0.0
 11
3.75
 21
0.0
 31
0.0
  0
ENDBLK
  8
LETTERS
 39
2.0
  0
ENDSEC
  0
SECTION
  2
ENTITIES
  0
INSERT
  8
BASE
  2
B
 10
20.0
 20
0.011
 30
-32.999
210
0.0
220
-1.0
230
0.0
  0
INSERT
  8
BASE
  2
I
 10
29.0
 20
0.011
 30
-32.999
210
0.0
220
-1.0
230
0.0
  0
INSERT
  8
BASE
  2
G
 10
32.0
 20
0.011
 30
-32.999
210
0.0
220
-1.0
230
0.0
  0
INSERT
  8
BASE
  2
D
 10
44.0
 20
0.011
 30
-32.999
210
0.0
220
-1.0
230
0.0
  0
LINE
  8
BASE
 10
0.0
 20
0.0
 30
0.0
 11
72.0
 21
0.0
 31
0.0
  0
LINE
  8
BASE
 10
72.0
 20
0.0
 30
0.0
 11
72.0
 21
72.0
 31
0.0
  0
LINE
  8
BASE
 10
72.0
 20
72.0
 30
0.0
 11
0.0
 21
72.0
 31
0.0
  0
LINE
  8
BASE
 10
0.0
 20
72.0
 30
0.0
 11
0.0
 21
0.0
 31
0.0
  0
ENDSEC
  0
EOF
