  0
SECTION
  2
HEADER
  9
$ACADVER
  1
AC1009
  9
$INSBASE
 10
48.77
 20
35.319319
 30
0.0
  9
$EXTMIN
 10
9.527847
 20
8.400597
 30
0.0
  9
$EXTMAX
 10
89.589776
 20
52.264593
 30
0.0
  9
$LIMMIN
 10
-0.01
 20
-0.01
  9
$LIMMAX
 10
97.55
 20
63.05
  9
$ORTHOMODE
 70
     1
  9
$REGENMODE
 70
     1
  9
$FILLMODE
 70
     1
  9
$QTEXTMODE
 70
     0
  9
$MIRRTEXT
 70
     1
  9
$DRAGMODE
 70
     2
  9
$LTSCALE
 40
1.0
  9
$OSMODE
 70
     0
  9
$ATTMODE
 70
     1
  9
$TEXTSIZE
 40
0.6
  9
$TRACEWID
 40
0.05
  9
$TEXTSTYLE
  7
COMPLEX
  9
$CLAYER
  8
0
  9
$CELTYPE
  6
BYLAYER
  9
$CECOLOR
 62
   256
  9
$DIMSCALE
 40
1.0
  9
$DIMASZ
 40
0.18
  9
$DIMEXO
 40
0.0625
  9
$DIMDLI
 40
0.38
  9
$DIMRND
 40
0.0
  9
$DIMDLE
 40
0.0
  9
$DIMEXE
 40
0.18
  9
$DIMTP
 40
0.0
  9
$DIMTM
 40
0.0
  9
$DIMTXT
 40
0.18
  9
$DIMCEN
 40
0.09
  9
$DIMTSZ
 40
0.0
  9
$DIMTOL
 70
     0
  9
$DIMLIM
 70
     0
  9
$DIMTIH
 70
     1
  9
$DIMTOH
 70
     1
  9
$DIMSE1
 70
     0
  9
$DIMSE2
 70
     0
  9
$DIMTAD
 70
     0
  9
$DIMZIN
 70
     0
  9
$DIMBLK
  1

  9
$DIMASO
 70
     1
  9
$DIMSHO
 70
     0
  9
$DIMPOST
  1

  9
$DIMAPOST
  1

  9
$DIMALT
 70
     0
  9
$DIMALTD
 70
     2
  9
$DIMALTF
 40
25.4
  9
$DIMLFAC
 40
1.0
  9
$DIMTOFL
 70
     0
  9
$DIMTVP
 40
0.0
  9
$DIMTIX
 70
     0
  9
$DIMSOXD
 70
     0
  9
$DIMSAH
 70
     0
  9
$DIMBLK1
  1

  9
$DIMBLK2
  1

  9
$DIMSTYLE
  2
*UNNAMED
  9
$DIMCLRD
 70
     0
  9
$DIMCLRE
 70
     0
  9
$DIMCLRT
 70
     0
  9
$DIMTFAC
 40
1.0
  9
$DIMGAP
 40
0.09
  9
$LUNITS
 70
     2
  9
$LUPREC
 70
     4
  9
$SKETCHINC
 40
0.1
  9
$FILLETRAD
 40
0.1
  9
$AUNITS
 70
     0
  9
$AUPREC
 70
     3
  9
$MENU
  1
acad
  9
$ELEVATION
 40
0.0
  9
$PELEVATION
 40
0.0
  9
$THICKNESS
 40
0.0
  9
$LIMCHECK
 70
     1
  9
$BLIPMODE
 70
     0
  9
$CHAMFERA
 40
0.0
  9
$CHAMFERB
 40
0.0
  9
$SKPOLY
 70
     0
  9
$TDCREATE
 40
2448092.380229977
  9
$TDUPDATE
 40
2449884.305810995
  9
$TDINDWG
 40
0.0248943287
  9
$TDUSRTIMER
 40
0.0248943287
  9
$USRTIMER
 70
     1
  9
$ANGBASE
 50
0.0
  9
$ANGDIR
 70
     0
  9
$PDMODE
 70
     0
  9
$PDSIZE
 40
0.0
  9
$PLINEWID
 40
0.0
  9
$COORDS
 70
     0
  9
$SPLFRAME
 70
     0
  9
$SPLINETYPE
 70
     6
  9
$SPLINESEGS
 70
     8
  9
$ATTDIA
 70
     0
  9
$ATTREQ
 70
     1
  9
$HANDLING
 70
     0
  9
$HANDSEED
  5
0
  9
$SURFTAB1
 70
     6
  9
$SURFTAB2
 70
     6
  9
$SURFTYPE
 70
     6
  9
$SURFU
 70
     6
  9
$SURFV
 70
     6
  9
$UCSNAME
  2

  9
$UCSORG
 10
95.35999999999999
 20
52.2
 30
0.0
  9
$UCSXDIR
 10
1.0
 20
0.0
 30
0.0
  9
$UCSYDIR
 10
0.0
 20
1.0
 30
0.0
  9
$PUCSNAME
  2

  9
$PUCSORG
 10
0.0
 20
0.0
 30
0.0
  9
$PUCSXDIR
 10
1.0
 20
0.0
 30
0.0
  9
$PUCSYDIR
 10
0.0
 20
1.0
 30
0.0
  9
$USERI1
 70
     0
  9
$USERI2
 70
     0
  9
$USERI3
 70
     0
  9
$USERI4
 70
     0
  9
$USERI5
 70
     0
  9
$USERR1
 40
0.0
  9
$USERR2
 40
0.0
  9
$USERR3
 40
0.0
  9
$USERR4
 40
0.0
  9
$USERR5
 40
0.0
  9
$WORLDVIEW
 70
     1
  9
$SHADEDGE
 70
     3
  9
$SHADEDIF
 70
    70
  9
$TILEMODE
 70
     1
  9
$MAXACTVP
 70
    16
  9
$PINSBASE
 10
0.0
 20
0.0
 30
0.0
  9
$PLIMCHECK
 70
     0
  9
$PEXTMIN
 10
1.000000E+20
 20
1.000000E+20
 30
1.000000E+20
  9
$PEXTMAX
 10
-1.000000E+20
 20
-1.000000E+20
 30
-1.000000E+20
  9
$PLIMMIN
 10
0.0
 20
0.0
  9
$PLIMMAX
 10
12.0
 20
9.0
  9
$UNITMODE
 70
     0
  9
$VISRETAIN
 70
     0
  9
$PLINEGEN
 70
     0
  9
$PSLTSCALE
 70
     0
  9
$TREEDEPTH
 70
  3020
  9
$DWGCODEPAGE
  3
undefined
  0
ENDSEC
  0
SECTION
  2
TABLES
  0
TABLE
  2
VPORT
 70
     2
  0
VPORT
  2
*ACTIVE
 70
     0
 10
0.0
 20
0.0
 11
1.0
 21
1.0
 12
49.566234
 22
32.523949
 13
0.0
 23
0.0
 14
1.0
 24
1.0
 15
0.0
 25
0.0
 16
0.0
 26
0.0
 36
1.0
 17
0.0
 27
0.0
 37
0.0
 40
48.120784
 41
1.661211
 42
50.0
 43
0.0
 44
0.0
 50
0.0
 51
0.0
 71
     0
 72
   100
 73
     1
 74
     0
 75
     0
 76
     0
 77
     0
 78
     0
  0
ENDTAB
  0
TABLE
  2
LTYPE
 70
     1
  0
LTYPE
  2
CONTINUOUS
 70
    64
  3
Solid line
 72
    65
 73
     0
 40
0.0
  0
ENDTAB
  0
TABLE
  2
LAYER
 70
    24
  0
LAYER
  2
0
 70
    64
 62
     7
  6
CONTINUOUS
  0
LAYER
  2
FORMAT
 70
     0
 62
     7
  6
CONTINUOUS
  0
LAYER
  2
RWHEEL
 70
    64
 62
     7
  6
CONTINUOUS
  0
LAYER
  2
FCALIPER
 70
    64
 62
     7
  6
CONTINUOUS
  0
LAYER
  2
FEND
 70
    64
 62
     7
  6
CONTINUOUS
  0
LAYER
  2
FWHEEL
 70
    64
 62
     7
  6
CONTINUOUS
  0
LAYER
  2
FROTOR
 70
    64
 62
     7
  6
CONTINUOUS
  0
LAYER
  2
BARS
 70
    64
 62
     7
  6
CONTINUOUS
  0
LAYER
  2
RROTOR
 70
    64
 62
     7
  6
CONTINUOUS
  0
LAYER
  2
FENDER
 70
    64
 62
     1
  6
CONTINUOUS
  0
LAYER
  2
FPEG
 70
    64
 62
     7
  6
CONTINUOUS
  0
LAYER
  2
FRAME
 70
    64
 62
    40
  6
CONTINUOUS
  0
LAYER
  2
TANK
 70
    64
 62
     1
  6
CONTINUOUS
  0
LAYER
  2
TAIL
 70
    64
 62
     1
  6
CONTINUOUS
  0
LAYER
  2
SEAT
 70
    64
 62
     7
  6
CONTINUOUS
  0
LAYER
  2
MOTOR
 70
    64
 62
     7
  6
CONTINUOUS
  0
LAYER
  2
EXHAUST
 70
    64
 62
   112
  6
CONTINUOUS
  0
LAYER
  2
SHOCK
 70
    64
 62
     1
  6
CONTINUOUS
  0
LAYER
  2
REND
 70
    64
 62
   134
  6
CONTINUOUS
  0
LAYER
  2
RADIATOR
 70
    64
 62
   132
  6
CONTINUOUS
  0
LAYER
  2
GAUGES
 70
    64
 62
     6
  6
CONTINUOUS
  0
LAYER
  2
PLATE
 70
     0
 62
     1
  6
CONTINUOUS
  0
LAYER
  2
FAIRING
 70
    64
 62
     1
  6
CONTINUOUS
  0
LAYER
  2
AD_LOGO
 70
     0
 62
     7
  6
CONTINUOUS
  0
ENDTAB
  0
TABLE
  2
STYLE
 70
     3
  0
STYLE
  2
STANDARD
 70
     0
 40
0.0
 41
1.0
 50
0.0
 71
     0
 42
0.09
  3
txt
  4

  0
STYLE
  2
COMPLEX
 70
     0
 40
0.6
 41
1.0
 50
0.0
 71
     0
 42
0.6
  3
complex
  4

  0
STYLE
  2
LOG
 70
    64
 40
0.0
 41
1.0
 50
0.0
 71
     0
 42
0.2
  3
COMPLEX
  4

  0
ENDTAB
  0
TABLE
  2
VIEW
 70
     0
  0
ENDTAB
  0
TABLE
  2
UCS
 70
     0
  0
ENDTAB
  0
TABLE
  2
APPID
 70
     1
  0
APPID
  2
ACAD
 70
    64
  0
ENDTAB
  0
TABLE
  2
DIMSTYLE
 70
     0
  0
ENDTAB
  0
ENDSEC
  0
SECTION
  2
BLOCKS
  0
BLOCK
  8
0
  2
HEXHEAD
 70
    64
 10
56.218353
 20
0.216166
 30
0.0
  3
HEXHEAD
  0
LINE
  8
0
 10
55.885019
 20
-0.361184
 30
0.0
 11
56.551686
 21
-0.361184
 31
0.0
  0
LINE
  8
0
 10
56.551686
 20
-0.361184
 30
0.0
 11
56.885019
 21
0.216166
 31
0.0
  0
LINE
  8
0
 10
56.885019
 20
0.216166
 30
0.0
 11
56.551686
 21
0.793517
 31
0.0
  0
LINE
  8
0
 10
56.551686
 20
0.793517
 30
0.0
 11
55.885019
 21
0.793517
 31
0.0
  0
LINE
  8
0
 10
55.885019
 20
0.793517
 30
0.0
 11
55.551686
 21
0.216166
 31
0.0
  0
LINE
  8
0
 10
55.551686
 20
0.216166
 30
0.0
 11
55.885019
 21
-0.361184
 31
0.0
  0
ENDBLK
  8
0
  0
BLOCK
  8
0
  2
WINGLOGO
 70
     0
 10
0.586513
 20
18.501662
 30
0.0
  3
WINGLOGO
  0
LINE
  8
0
 10
1.398336
 20
0.560103
 30
0.0
 11
1.383888
 21
0.583879
 31
0.0
  0
LINE
  8
0
 10
1.371944
 20
0.560103
 30
0.0
 11
1.383888
 21
0.583879
 31
0.0
  0
LINE
  8
0
 10
1.342581
 20
0.501651
 30
0.0
 11
1.365035
 21
0.54635
 31
0.0
  0
LINE
  8
0
 10
1.315028
 20
0.501651
 30
0.0
 11
1.364087
 21
0.599313
 31
0.0
  0
LINE
  8
0
 10
1.433855
 20
0.501651
 30
0.0
 11
1.406693
 21
0.54635
 31
0.0
  0
LINE
  8
0
 10
1.494994
 20
0.501651
 30
0.0
 11
1.423556
 21
0.619211
 31
0.0
  0
LINE
  8
0
 10
1.338664
 20
0.599313
 30
0.0
 11
1.364087
 21
0.599313
 31
0.0
  0
LINE
  8
0
 10
1.292619
 20
0.501651
 30
0.0
 11
1.315028
 21
0.501651
 31
0.0
  0
LINE
  8
0
 10
1.338664
 20
0.619211
 30
0.0
 11
1.423556
 21
0.619211
 31
0.0
  0
LINE
  8
0
 10
1.292619
 20
0.479997
 30
0.0
 11
1.376458
 21
0.479997
 31
0.0
  0
LINE
  8
0
 10
1.292619
 20
0.479997
 30
0.0
 11
1.292619
 21
0.501651
 31
0.0
  0
LINE
  8
0
 10
1.376458
 20
0.479997
 30
0.0
 11
1.376458
 21
0.501651
 31
0.0
  0
LINE
  8
0
 10
1.423434
 20
0.479997
 30
0.0
 11
1.423434
 21
0.501651
 31
0.0
  0
LINE
  8
0
 10
1.507273
 20
0.479997
 30
0.0
 11
1.507273
 21
0.501651
 31
0.0
  0
LINE
  8
0
 10
1.338664
 20
0.599313
 30
0.0
 11
1.338664
 21
0.619211
 31
0.0
  0
LINE
  8
0
 10
1.494994
 20
0.501651
 30
0.0
 11
1.507273
 21
0.501651
 31
0.0
  0
LINE
  8
0
 10
1.423434
 20
0.479997
 30
0.0
 11
1.507273
 21
0.479997
 31
0.0
  0
LINE
  8
0
 10
1.365035
 20
0.54635
 30
0.0
 11
1.406693
 21
0.54635
 31
0.0
  0
LINE
  8
0
 10
1.371944
 20
0.560103
 30
0.0
 11
1.398336
 21
0.560103
 31
0.0
  0
LINE
  8
0
 10
1.342581
 20
0.501651
 30
0.0
 11
1.376458
 21
0.501651
 31
0.0
  0
LINE
  8
0
 10
1.433871
 20
0.501651
 30
0.0
 11
1.423434
 21
0.501651
 31
0.0
  0
POLYLINE
  8
0
 66
     1
 10
0.0
 20
0.0
 30
0.0
  0
VERTEX
  8
0
 10
1.290304
 20
0.546965
 30
0.0
 42
0.126822
  0
VERTEX
  8
0
 10
1.283248
 20
0.574335
 30
0.0
 42
0.10607
  0
VERTEX
  8
0
 10
1.261173
 20
0.59971
 30
0.0
 42
0.085783
 70
     2
 50
143.130102
  0
VERTEX
  8
0
 10
1.226848
 20
0.617248
 30
0.0
 42
0.01882
 50
143.130102
  0
VERTEX
  8
0
 10
1.219573
 20
0.619211
 30
0.0
 42
0.047215
  0
SEQEND
  8
0
  0
POLYLINE
  8
0
 66
     1
 10
0.0
 20
0.0
 30
0.0
  0
VERTEX
  8
0
 10
1.21057
 20
0.479997
 30
0.0
 42
0.037875
  0
VERTEX
  8
0
 10
1.230059
 20
0.484468
 30
0.0
 42
0.085783
  0
VERTEX
  8
0
 10
1.261173
 20
0.500365
 30
0.0
 42
0.10607
 70
     2
 50
36.869898
  0
VERTEX
  8
0
 10
1.283248
 20
0.525741
 30
0.0
 42
0.160264
 50
36.869898
  0
VERTEX
  8
0
 10
1.290304
 20
0.546965
 30
0.0
 42
0.126822
  0
SEQEND
  8
0
  0
LINE
  8
0
 10
1.15254
 20
0.599827
 30
0.0
 11
1.189102
 21
0.599827
 31
0.0
  0
ARC
  8
0
 10
1.191153
 20
0.549572
 30
0.0
 40
0.050942
 50
68.227233
 51
90.0
  0
ARC
  8
0
 10
1.191842
 20
0.551295
 30
0.0
 40
0.049087
 50
46.041627
 51
68.227233
  0
ARC
  8
0
 10
1.192906
 20
0.552399
 30
0.0
 40
0.047553
 50
23.246174
 51
46.041627
  0
ARC
  8
0
 10
1.172613
 20
0.549052
 30
0.0
 40
0.0677
 50
359.967737
 51
19.067042
  0
ARC
  8
0
 10
1.194562
 20
0.549013
 30
0.0
 40
0.045751
 50
336.753826
 51
0.0
  0
ARC
  8
0
 10
1.192906
 20
0.549725
 30
0.0
 40
0.047553
 50
313.958373
 51
336.753826
  0
ARC
  8
0
 10
1.191842
 20
0.550829
 30
0.0
 40
0.049087
 50
291.772767
 51
313.958373
  0
ARC
  8
0
 10
1.191153
 20
0.552552
 30
0.0
 40
0.050942
 50
270.0
 51
291.772767
  0
ARC
  8
0
 10
1.191153
 20
0.552552
 30
0.0
 40
0.050942
 50
267.691678
 51
270.0
  0
ARC
  8
0
 10
1.191153
 20
0.549572
 30
0.0
 40
0.050942
 50
90.0
 51
99.422603
  0
LINE
  8
0
 10
1.079138
 20
0.599313
 30
0.0
 11
1.091416
 21
0.599313
 31
0.0
  0
LINE
  8
0
 10
1.079138
 20
0.501651
 30
0.0
 11
1.091416
 21
0.501651
 31
0.0
  0
LINE
  8
0
 10
1.091416
 20
0.501651
 30
0.0
 11
1.091416
 21
0.599313
 31
0.0
  0
LINE
  8
0
 10
1.15254
 20
0.501651
 30
0.0
 11
1.15254
 21
0.599827
 31
0.0
  0
LINE
  8
0
 10
1.079138
 20
0.619211
 30
0.0
 11
1.219573
 21
0.619211
 31
0.0
  0
LINE
  8
0
 10
1.079138
 20
0.479997
 30
0.0
 11
1.21057
 21
0.479997
 31
0.0
  0
LINE
  8
0
 10
1.079138
 20
0.479997
 30
0.0
 11
1.079138
 21
0.501651
 31
0.0
  0
LINE
  8
0
 10
1.079138
 20
0.599313
 30
0.0
 11
1.079138
 21
0.619211
 31
0.0
  0
LINE
  8
0
 10
1.15254
 20
0.501651
 30
0.0
 11
1.189102
 21
0.501651
 31
0.0
  0
LINE
  8
0
 10
1.000024
 20
0.538992
 30
0.0
 11
1.000024
 21
0.599313
 31
0.0
  0
LINE
  8
0
 10
0.909385
 20
0.501651
 30
0.0
 11
0.909385
 21
0.55132
 31
0.0
  0
LINE
  8
0
 10
1.000024
 20
0.538992
 30
0.0
 11
0.918631
 21
0.619211
 31
0.0
  0
LINE
  8
0
 10
0.98648
 20
0.479997
 30
0.0
 11
0.909385
 21
0.55132
 31
0.0
  0
LINE
  8
0
 10
0.845229
 20
0.599313
 30
0.0
 11
0.865796
 21
0.599313
 31
0.0
  0
LINE
  8
0
 10
0.845229
 20
0.501651
 30
0.0
 11
0.865796
 21
0.501651
 31
0.0
  0
LINE
  8
0
 10
0.865796
 20
0.501651
 30
0.0
 11
0.865796
 21
0.599313
 31
0.0
  0
LINE
  8
0
 10
1.037167
 20
0.479997
 30
0.0
 11
1.037167
 21
0.599313
 31
0.0
  0
LINE
  8
0
 10
0.845229
 20
0.619211
 30
0.0
 11
0.918631
 21
0.619211
 31
0.0
  0
LINE
  8
0
 10
0.845229
 20
0.479997
 30
0.0
 11
0.929068
 21
0.479997
 31
0.0
  0
LINE
  8
0
 10
0.845229
 20
0.479997
 30
0.0
 11
0.845229
 21
0.501651
 31
0.0
  0
LINE
  8
0
 10
0.929068
 20
0.479997
 30
0.0
 11
0.929068
 21
0.501651
 31
0.0
  0
LINE
  8
0
 10
0.845229
 20
0.599313
 30
0.0
 11
0.845229
 21
0.619211
 31
0.0
  0
LINE
  8
0
 10
1.059883
 20
0.599313
 30
0.0
 11
1.059883
 21
0.619211
 31
0.0
  0
LINE
  8
0
 10
0.98648
 20
0.479997
 30
0.0
 11
1.037167
 21
0.479997
 31
0.0
  0
LINE
  8
0
 10
0.976043
 20
0.599313
 30
0.0
 11
0.976043
 21
0.619211
 31
0.0
  0
LINE
  8
0
 10
0.976043
 20
0.619211
 30
0.0
 11
1.059883
 21
0.619211
 31
0.0
  0
LINE
  8
0
 10
0.976043
 20
0.599313
 30
0.0
 11
1.000024
 21
0.599313
 31
0.0
  0
LINE
  8
0
 10
1.037167
 20
0.599313
 30
0.0
 11
1.059883
 21
0.599313
 31
0.0
  0
LINE
  8
0
 10
0.909385
 20
0.501651
 30
0.0
 11
0.929068
 21
0.501651
 31
0.0
  0
POLYLINE
  8
0
 66
     1
 10
0.0
 20
0.0
 30
0.0
 70
     1
  0
VERTEX
  8
0
 10
0.739048
 20
0.600514
 30
0.0
 42
0.095288
  0
VERTEX
  8
0
 10
0.720152
 20
0.59688
 30
0.0
 42
0.097106
  0
VERTEX
  8
0
 10
0.704287
 20
0.58663
 30
0.0
 42
0.099793
 70
     2
 50
223.958373
  0
VERTEX
  8
0
 10
0.692695
 20
0.569854
 30
0.0
 42
0.120402
 50
223.958373
  0
VERTEX
  8
0
 10
0.689888
 20
0.55311
 30
0.0
 42
0.10178
  0
VERTEX
  8
0
 10
0.693602
 20
0.535053
 30
0.0
 42
0.099793
  0
VERTEX
  8
0
 10
0.704287
 20
0.51959
 30
0.0
 42
0.097106
 70
     2
 50
316.041627
  0
VERTEX
  8
0
 10
0.720152
 20
0.50934
 30
0.0
 42
0.095288
 50
316.041627
  0
VERTEX
  8
0
 10
0.739048
 20
0.505706
 30
0.0
 42
0.095288
  0
VERTEX
  8
0
 10
0.757944
 20
0.50934
 30
0.0
 42
0.097106
  0
VERTEX
  8
0
 10
0.773809
 20
0.51959
 30
0.0
 42
0.099793
 70
     2
 50
43.958373
  0
VERTEX
  8
0
 10
0.784494
 20
0.535053
 30
0.0
 42
0.10178
 50
43.958373
  0
VERTEX
  8
0
 10
0.788208
 20
0.55311
 30
0.0
 42
0.10178
  0
VERTEX
  8
0
 10
0.784494
 20
0.571167
 30
0.0
 42
0.099793
  0
VERTEX
  8
0
 10
0.773809
 20
0.58663
 30
0.0
 42
0.097106
 70
     2
 50
136.041627
  0
VERTEX
  8
0
 10
0.757944
 20
0.59688
 30
0.0
 42
0.095288
 50
136.041627
  0
SEQEND
  8
0
  0
POLYLINE
  8
0
 66
     1
 10
0.0
 20
0.0
 30
0.0
 70
     1
  0
VERTEX
  8
0
 10
0.838198
 20
0.546965
 30
0.0
 42
0.126822
  0
VERTEX
  8
0
 10
0.831143
 20
0.574335
 30
0.0
 42
0.10607
  0
VERTEX
  8
0
 10
0.809068
 20
0.59971
 30
0.0
 42
0.085783
 70
     2
 50
143.130102
  0
VERTEX
  8
0
 10
0.774743
 20
0.617248
 30
0.0
 42
0.091282
 50
143.130102
  0
VERTEX
  8
0
 10
0.738741
 20
0.621558
 30
0.0
 42
0.075445
  0
VERTEX
  8
0
 10
0.699528
 20
0.615607
 30
0.0
 42
0.085783
  0
VERTEX
  8
0
 10
0.668414
 20
0.59971
 30
0.0
 42
0.10607
 70
     2
 50
216.869898
  0
VERTEX
  8
0
 10
0.646339
 20
0.574335
 30
0.0
 42
0.126822
 50
216.869898
  0
VERTEX
  8
0
 10
0.639284
 20
0.546965
 30
0.0
 42
0.160264
  0
VERTEX
  8
0
 10
0.646339
 20
0.525741
 30
0.0
 42
0.10607
  0
VERTEX
  8
0
 10
0.668414
 20
0.500365
 30
0.0
 42
0.085783
 70
     2
 50
323.130102
  0
VERTEX
  8
0
 10
0.699528
 20
0.484468
 30
0.0
 42
0.075445
 50
323.130102
  0
VERTEX
  8
0
 10
0.738741
 20
0.478517
 30
0.0
 42
0.075445
  0
VERTEX
  8
0
 10
0.777954
 20
0.484468
 30
0.0
 42
0.085783
  0
VERTEX
  8
0
 10
0.809068
 20
0.500365
 30
0.0
 42
0.10607
 70
     2
 50
36.869898
  0
VERTEX
  8
0
 10
0.831143
 20
0.525741
 30
0.0
 42
0.160264
 50
36.869898
  0
SEQEND
  8
0
  0
LINE
  8
0
 10
0.554534
 20
0.501651
 30
0.0
 11
0.545865
 21
0.501651
 31
0.0
  0
LINE
  8
0
 10
0.493373
 20
0.599313
 30
0.0
 11
0.50381
 21
0.599313
 31
0.0
  0
LINE
  8
0
 10
0.493373
 20
0.501651
 30
0.0
 11
0.50381
 21
0.501651
 31
0.0
  0
LINE
  8
0
 10
0.615657
 20
0.599313
 30
0.0
 11
0.627936
 21
0.599313
 31
0.0
  0
LINE
  8
0
 10
0.554534
 20
0.560103
 30
0.0
 11
0.554534
 21
0.599313
 31
0.0
  0
LINE
  8
0
 10
0.493373
 20
0.560103
 30
0.0
 11
0.493373
 21
0.599313
 31
0.0
  0
LINE
  8
0
 10
0.493373
 20
0.560103
 30
0.0
 11
0.554534
 21
0.560103
 31
0.0
  0
LINE
  8
0
 10
0.493373
 20
0.54635
 30
0.0
 11
0.554534
 21
0.54635
 31
0.0
  0
LINE
  8
0
 10
0.544097
 20
0.599313
 30
0.0
 11
0.554534
 21
0.599313
 31
0.0
  0
LINE
  8
0
 10
0.544097
 20
0.619211
 30
0.0
 11
0.627936
 21
0.619211
 31
0.0
  0
LINE
  8
0
 10
0.544097
 20
0.599313
 30
0.0
 11
0.544097
 21
0.619211
 31
0.0
  0
LINE
  8
0
 10
0.50381
 20
0.599313
 30
0.0
 11
0.50381
 21
0.619211
 31
0.0
  0
LINE
  8
0
 10
0.544097
 20
0.479997
 30
0.0
 11
0.627936
 21
0.479997
 31
0.0
  0
LINE
  8
0
 10
0.615657
 20
0.501651
 30
0.0
 11
0.627936
 21
0.501651
 31
0.0
  0
LINE
  8
0
 10
0.627936
 20
0.599313
 30
0.0
 11
0.627936
 21
0.619211
 31
0.0
  0
LINE
  8
0
 10
0.419971
 20
0.599313
 30
0.0
 11
0.419971
 21
0.619211
 31
0.0
  0
LINE
  8
0
 10
0.627936
 20
0.479997
 30
0.0
 11
0.627936
 21
0.501651
 31
0.0
  0
LINE
  8
0
 10
0.544097
 20
0.479997
 30
0.0
 11
0.544097
 21
0.501651
 31
0.0
  0
LINE
  8
0
 10
0.50381
 20
0.479997
 30
0.0
 11
0.50381
 21
0.501651
 31
0.0
  0
LINE
  8
0
 10
0.419971
 20
0.479997
 30
0.0
 11
0.419971
 21
0.501651
 31
0.0
  0
LINE
  8
0
 10
0.419971
 20
0.479997
 30
0.0
 11
0.50381
 21
0.479997
 31
0.0
  0
LINE
  8
0
 10
0.419971
 20
0.619211
 30
0.0
 11
0.50381
 21
0.619211
 31
0.0
  0
LINE
  8
0
 10
0.615657
 20
0.501651
 30
0.0
 11
0.615657
 21
0.599313
 31
0.0
  0
LINE
  8
0
 10
0.554534
 20
0.501651
 30
0.0
 11
0.554534
 21
0.54635
 31
0.0
  0
LINE
  8
0
 10
0.493373
 20
0.501651
 30
0.0
 11
0.493373
 21
0.54635
 31
0.0
  0
LINE
  8
0
 10
0.43225
 20
0.501651
 30
0.0
 11
0.43225
 21
0.599313
 31
0.0
  0
LINE
  8
0
 10
0.419971
 20
0.501651
 30
0.0
 11
0.43225
 21
0.501651
 31
0.0
  0
LINE
  8
0
 10
0.419971
 20
0.599313
 30
0.0
 11
0.43225
 21
0.599313
 31
0.0
  0
LINE
  8
0
 10
1.299877
 20
0.649103
 30
0.0
 11
1.2409
 21
0.649103
 31
0.0
  0
LINE
  8
0
 10
1.2409
 20
0.649103
 30
0.0
 11
1.383316
 21
0.817214
 31
0.0
  0
LINE
  8
0
 10
1.299877
 20
0.649103
 30
0.0
 11
1.436468
 21
0.810338
 31
0.0
  0
LINE
  8
0
 10
0.416504
 20
1.334103
 30
0.0
 11
1.407664
 21
0.928223
 31
0.0
  0
ARC
  8
0
 10
1.379242
 20
0.858817
 30
0.0
 40
0.075
 50
319.730212
 51
67.73089
  0
LINE
  8
0
 10
1.361716
 20
0.896715
 30
0.0
 11
0.493616
 21
1.182927
 31
0.0
  0
LINE
  8
0
 10
1.214688
 20
0.649103
 30
0.0
 11
1.256994
 21
0.699042
 31
0.0
  0
ARC
  8
0
 10
1.345166
 20
0.849533
 30
0.0
 40
0.03
 50
319.730212
 51
70.670545
  0
ARC
  8
0
 10
1.345166
 20
0.849533
 30
0.0
 40
0.05
 50
319.730212
 51
70.670545
  0
LINE
  8
0
 10
0.860216
 20
0.649103
 30
0.0
 11
0.952976
 21
0.71227
 31
0.0
  0
LINE
  8
0
 10
0.491918
 20
1.138649
 30
0.0
 11
1.355096
 21
0.877842
 31
0.0
  0
LINE
  8
0
 10
1.355509
 20
0.815331
 30
0.0
 11
1.368056
 21
0.830142
 31
0.0
  0
LINE
  8
0
 10
1.310377
 20
0.762057
 30
0.0
 11
1.34807
 21
0.80655
 31
0.0
  0
LINE
  8
0
 10
1.265172
 20
0.708696
 30
0.0
 11
1.302532
 21
0.752796
 31
0.0
  0
LINE
  8
0
 10
0.611057
 20
0.944507
 30
0.0
 11
1.34807
 21
0.80655
 31
0.0
  0
LINE
  8
0
 10
1.302532
 20
0.752796
 30
0.0
 11
0.728326
 21
0.810645
 31
0.0
  0
LINE
  8
0
 10
1.256994
 20
0.699042
 30
0.0
 11
0.952976
 21
0.71227
 31
0.0
  0
LINE
  8
0
 10
1.161119
 20
0.851718
 30
0.0
 11
1.355509
 21
0.815331
 31
0.0
  0
LINE
  8
0
 10
1.310377
 20
0.762057
 30
0.0
 11
1.067168
 21
0.786559
 31
0.0
  0
LINE
  8
0
 10
1.265172
 20
0.708696
 30
0.0
 11
0.971605
 21
0.721469
 31
0.0
  0
LINE
  8
0
 10
0.603994
 20
0.982757
 30
0.0
 11
1.155279
 21
0.868489
 31
0.0
  0
LINE
  8
0
 10
0.713679
 20
0.845591
 30
0.0
 11
1.060938
 21
0.80274
 31
0.0
  0
LINE
  8
0
 10
0.815574
 20
0.747793
 30
0.0
 11
0.9645
 21
0.737397
 31
0.0
  0
LINE
  8
0
 10
1.214688
 20
0.649103
 30
0.0
 11
0.860216
 21
0.649103
 31
0.0
  0
ARC
  8
0
 10
1.153452
 20
0.859677
 30
0.0
 40
0.009
 50
349.397866
 51
78.289847
  0
ARC
  8
0
 10
0.963943
 20
0.729417
 30
0.0
 40
0.008
 50
357.508707
 51
86.007024
  0
ARC
  8
0
 10
1.059958
 20
0.7948
 30
0.0
 40
0.008
 50
354.247174
 51
82.965338
  0
ARC
  8
0
 10
1.571237
 20
1.667369
 30
0.0
 40
1.201863
 50
225.465641
 51
228.843193
  0
ARC
  8
0
 10
1.571237
 20
1.667369
 30
0.0
 40
1.201863
 50
196.098581
 51
201.984269
  0
ARC
  8
0
 10
1.571237
 20
1.667369
 30
0.0
 40
1.201863
 50
206.098579
 51
213.237115
  0
ARC
  8
0
 10
1.571237
 20
1.667369
 30
0.0
 40
1.201863
 50
216.973907
 51
221.876828
  0
ARC
  8
0
 10
0.819752
 20
0.807647
 30
0.0
 40
0.06
 50
228.843193
 51
266.007024
  0
ARC
  8
0
 10
0.721027
 20
0.905139
 30
0.0
 40
0.06
 50
221.876828
 51
262.965338
  0
ARC
  8
0
 10
0.616172
 20
1.041508
 30
0.0
 40
0.06
 50
213.237115
 51
258.289847
  0
ARC
  8
0
 10
0.512403
 20
1.23991
 30
0.0
 40
0.06
 50
201.984269
 51
251.752628
  0
LINE
  8
0
 10
1.162299
 20
0.858021
 30
0.0
 11
1.161119
 21
0.851718
 31
0.0
  0
LINE
  8
0
 10
1.067918
 20
0.793998
 30
0.0
 11
1.067168
 21
0.786559
 31
0.0
  0
LINE
  8
0
 10
0.971935
 20
0.729069
 30
0.0
 11
0.971605
 21
0.721469
 31
0.0
  0
ENDBLK
  8
0
  0
BLOCK
  8
0
  2
HRCLOGO
 70
     0
 10
0.0
 20
0.0
 30
0.0
  3
HRCLOGO
  0
LINE
  8
0
 10
0.0
 20
0.0
 30
0.0
 11
0.39
 21
0.0
 31
0.0
  0
LINE
  8
0
 10
0.0
 20
1.135
 30
0.0
 11
0.39
 21
1.135
 31
0.0
  0
LINE
  8
0
 10
0.39
 20
0.38
 30
0.0
 11
0.78
 21
0.38
 31
0.0
  0
LINE
  8
0
 10
0.39
 20
0.755
 30
0.0
 11
0.78
 21
0.755
 31
0.0
  0
LINE
  8
0
 10
0.0
 20
1.135
 30
0.0
 11
0.0
 21
0.5925
 31
0.0
  0
LINE
  8
0
 10
0.39
 20
1.135
 30
0.0
 11
0.39
 21
0.755
 31
0.0
  0
LINE
  8
0
 10
0.78
 20
1.135
 30
0.0
 11
0.78
 21
0.755
 31
0.0
  0
LINE
  8
0
 10
1.17
 20
1.135
 30
0.0
 11
1.17
 21
0.5925
 31
0.0
  0
LINE
  8
0
 10
1.25
 20
1.135
 30
0.0
 11
1.25
 21
0.5925
 31
0.0
  0
LINE
  8
0
 10
1.64
 20
0.755
 30
0.0
 11
1.64
 21
0.5925
 31
0.0
  0
LINE
  8
0
 10
3.598849
 20
1.135
 30
0.0
 11
3.598849
 21
0.755
 31
0.0
  0
ARC
  8
0
 10
3.006349
 20
0.5675
 30
0.0
 40
0.1875
 50
90.0
 51
172.337744
  0
ARC
  8
0
 10
3.006349
 20
0.5675
 30
0.0
 40
0.5675
 50
89.999996
 51
177.47514
  0
LINE
  8
0
 10
3.006349
 20
1.135
 30
0.0
 11
3.598849
 21
1.135
 31
0.0
  0
LINE
  8
0
 10
3.006349
 20
0.755
 30
0.0
 11
3.598849
 21
0.755
 31
0.0
  0
LINE
  8
0
 10
3.006349
 20
0.38
 30
0.0
 11
3.598849
 21
0.38
 31
0.0
  0
LINE
  8
0
 10
3.598849
 20
0.38
 30
0.0
 11
3.598849
 21
0.0
 31
0.0
  0
LINE
  8
0
 10
0.78
 20
1.135
 30
0.0
 11
1.17
 21
1.135
 31
0.0
  0
LINE
  8
0
 10
1.16
 20
0.0
 30
0.0
 11
1.64
 21
0.0
 31
0.0
  0
LINE
  8
0
 10
1.25
 20
1.135
 30
0.0
 11
2.03
 21
1.135
 31
0.0
  0
LINE
  8
0
 10
1.64
 20
0.755
 30
0.0
 11
1.968559
 21
0.755
 31
0.0
  0
LINE
  8
0
 10
2.091441
 20
0.38
 30
0.0
 11
2.470719
 21
0.38
 31
0.0
  0
LINE
  8
0
 10
0.39
 20
0.38
 30
0.0
 11
0.39
 21
0.0
 31
0.0
  0
ARC
  8
0
 10
1.16
 20
0.38
 30
0.0
 40
0.38
 50
180.0
 51
270.000002
  0
ARC
  8
0
 10
1.264863
 20
0.474863
 30
0.0
 40
0.094863
 50
179.999998
 51
260.985721
  0
ARC
  8
0
 10
2.03
 20
0.755
 30
0.0
 40
0.38
 50
279.304825
 51
325.998782
  0
ARC
  8
0
 10
2.03
 20
0.38
 30
0.0
 40
0.38
 50
99.304825
 51
145.998782
  0
LINE
  8
0
 10
2.03
 20
0.0
 30
0.0
 11
3.598849
 21
0.0
 31
0.0
  0
LINE
  8
0
 10
2.820523
 20
0.5925
 30
0.0
 11
2.4394
 21
0.5925
 31
0.0
  0
LINE
  8
0
 10
2.820523
 20
0.5425
 30
0.0
 11
2.4394
 21
0.5425
 31
0.0
  0
LINE
  8
0
 10
1.17
 20
0.5925
 30
0.0
 11
0.0
 21
0.5925
 31
0.0
  0
LINE
  8
0
 10
1.17
 20
0.5425
 30
0.0
 11
0.0
 21
0.5425
 31
0.0
  0
LINE
  8
0
 10
1.17
 20
0.5425
 30
0.0
 11
1.17
 21
0.474863
 31
0.0
  0
LINE
  8
0
 10
1.25
 20
0.5425
 30
0.0
 11
1.25
 21
0.381172
 31
0.0
  0
LINE
  8
0
 10
0.0
 20
0.5425
 30
0.0
 11
0.0
 21
0.0
 31
0.0
  0
LINE
  8
0
 10
2.373502
 20
0.5925
 30
0.0
 11
1.71497
 21
0.5925
 31
0.0
  0
LINE
  8
0
 10
2.34503
 20
0.5425
 30
0.0
 11
1.686498
 21
0.5425
 31
0.0
  0
LINE
  8
0
 10
1.64
 20
0.5425
 30
0.0
 11
1.25
 21
0.5425
 31
0.0
  0
LINE
  8
0
 10
1.64
 20
0.5925
 30
0.0
 11
1.25
 21
0.5925
 31
0.0
  0
LINE
  8
0
 10
1.64
 20
0.5425
 30
0.0
 11
1.64
 21
0.0
 31
0.0
  0
ARC
  8
0
 10
2.03
 20
0.38
 30
0.0
 40
0.38
 50
154.682652
 51
270.0
  0
ARC
  8
0
 10
2.03
 20
0.755
 30
0.0
 40
0.38
 50
334.682652
 51
90.0
  0
ARC
  8
0
 10
3.006349
 20
0.5675
 30
0.0
 40
0.5675
 50
182.52486
 51
199.292842
  0
ARC
  8
0
 10
3.006349
 20
0.5675
 30
0.0
 40
0.1875
 50
187.662256
 51
270.0
  0
ENDBLK
  8
0
  0
BLOCK
  8
0
  2
HONLOGO
 70
     0
 10
0.586513
 20
18.501662
 30
0.0
  3
HONLOGO
  0
LINE
  8
0
 10
7.028485
 20
0.575471
 30
0.0
 11
6.924689
 21
0.74628
 31
0.0
  0
LINE
  8
0
 10
6.838885
 20
0.575471
 30
0.0
 11
6.924689
 21
0.74628
 31
0.0
  0
LINE
  8
0
 10
6.627947
 20
0.155558
 30
0.0
 11
6.789254
 21
0.47667
 31
0.0
  0
LINE
  8
0
 10
6.430006
 20
0.155558
 30
0.0
 11
6.782446
 21
0.857157
 31
0.0
  0
LINE
  8
0
 10
7.283653
 20
0.155558
 30
0.0
 11
7.088523
 21
0.47667
 31
0.0
  0
LINE
  8
0
 10
7.722868
 20
0.155558
 30
0.0
 11
7.209664
 21
1.000102
 31
0.0
  0
LINE
  8
0
 10
6.599808
 20
0.857157
 30
0.0
 11
6.782446
 21
0.857157
 31
0.0
  0
LINE
  8
0
 10
6.269025
 20
0.155558
 30
0.0
 11
6.430006
 21
0.155558
 31
0.0
  0
LINE
  8
0
 10
6.599808
 20
1.000102
 30
0.0
 11
7.209664
 21
1.000102
 31
0.0
  0
LINE
  8
0
 10
6.269025
 20
0.0
 30
0.0
 11
6.871317
 21
0.0
 31
0.0
  0
LINE
  8
0
 10
6.269025
 20
0.0
 30
0.0
 11
6.269025
 21
0.155558
 31
0.0
  0
LINE
  8
0
 10
6.871317
 20
0.0
 30
0.0
 11
6.871317
 21
0.155558
 31
0.0
  0
LINE
  8
0
 10
7.208784
 20
0.0
 30
0.0
 11
7.208784
 21
0.155558
 31
0.0
  0
LINE
  8
0
 10
7.811077
 20
0.0
 30
0.0
 11
7.811077
 21
0.155558
 31
0.0
  0
LINE
  8
0
 10
6.599808
 20
0.857157
 30
0.0
 11
6.599808
 21
1.000102
 31
0.0
  0
LINE
  8
0
 10
7.722868
 20
0.155558
 30
0.0
 11
7.811077
 21
0.155558
 31
0.0
  0
LINE
  8
0
 10
7.208784
 20
0.0
 30
0.0
 11
7.811077
 21
0.0
 31
0.0
  0
LINE
  8
0
 10
6.789254
 20
0.47667
 30
0.0
 11
7.088523
 21
0.47667
 31
0.0
  0
LINE
  8
0
 10
6.838885
 20
0.575471
 30
0.0
 11
7.028485
 21
0.575471
 31
0.0
  0
LINE
  8
0
 10
6.627947
 20
0.155558
 30
0.0
 11
6.871317
 21
0.155558
 31
0.0
  0
LINE
  8
0
 10
7.283762
 20
0.155558
 30
0.0
 11
7.208784
 21
0.155558
 31
0.0
  0
POLYLINE
  8
0
 66
     1
 10
0.0
 20
0.0
 30
0.0
  0
VERTEX
  8
0
 10
6.25239
 20
0.481093
 30
0.0
 42
0.126822
  0
VERTEX
  8
0
 10
6.201703
 20
0.677713
 30
0.0
 42
0.10607
  0
VERTEX
  8
0
 10
6.04312
 20
0.860009
 30
0.0
 42
0.085783
 70
     2
 50
143.130102
  0
VERTEX
  8
0
 10
5.796532
 20
0.985999
 30
0.0
 42
0.01882
 50
143.130102
  0
VERTEX
  8
0
 10
5.744267
 20
1.000102
 30
0.0
 42
0.047215
  0
SEQEND
  8
0
  0
POLYLINE
  8
0
 66
     1
 10
0.0
 20
0.0
 30
0.0
  0
VERTEX
  8
0
 10
5.67959
 20
0.0
 30
0.0
 42
0.037875
  0
VERTEX
  8
0
 10
5.819601
 20
0.032118
 30
0.0
 42
0.085783
  0
VERTEX
  8
0
 10
6.04312
 20
0.146321
 30
0.0
 42
0.10607
 70
     2
 50
36.869898
  0
VERTEX
  8
0
 10
6.201703
 20
0.328617
 30
0.0
 42
0.160264
 50
36.869898
  0
VERTEX
  8
0
 10
6.25239
 20
0.481093
 30
0.0
 42
0.126822
  0
SEQEND
  8
0
  0
LINE
  8
0
 10
5.262708
 20
0.860846
 30
0.0
 11
5.525364
 21
0.860846
 31
0.0
  0
ARC
  8
0
 10
5.540104
 20
0.499818
 30
0.0
 40
0.365966
 50
68.227233
 51
90.0
  0
ARC
  8
0
 10
5.545048
 20
0.512198
 30
0.0
 40
0.352635
 50
46.041627
 51
68.227233
  0
ARC
  8
0
 10
5.552696
 20
0.520128
 30
0.0
 40
0.341618
 50
23.246174
 51
46.041627
  0
ARC
  8
0
 10
5.406914
 20
0.496081
 30
0.0
 40
0.486348
 50
359.967737
 51
19.067042
  0
ARC
  8
0
 10
5.56459
 20
0.495808
 30
0.0
 40
0.328673
 50
336.753826
 51
0.0
  0
ARC
  8
0
 10
5.552696
 20
0.500917
 30
0.0
 40
0.341618
 50
313.958373
 51
336.753826
  0
ARC
  8
0
 10
5.545048
 20
0.508847
 30
0.0
 40
0.352635
 50
291.772767
 51
313.958373
  0
ARC
  8
0
 10
5.540104
 20
0.521227
 30
0.0
 40
0.365966
 50
270.0
 51
291.772767
  0
ARC
  8
0
 10
5.540104
 20
0.521227
 30
0.0
 40
0.365966
 50
267.691678
 51
270.0
  0
ARC
  8
0
 10
5.540104
 20
0.499818
 30
0.0
 40
0.365966
 50
90.0
 51
99.422603
  0
LINE
  8
0
 10
4.735393
 20
0.857157
 30
0.0
 11
4.823602
 21
0.857157
 31
0.0
  0
LINE
  8
0
 10
4.735393
 20
0.155558
 30
0.0
 11
4.823602
 21
0.155558
 31
0.0
  0
LINE
  8
0
 10
4.823602
 20
0.155558
 30
0.0
 11
4.823602
 21
0.857157
 31
0.0
  0
LINE
  8
0
 10
5.262708
 20
0.155558
 30
0.0
 11
5.262708
 21
0.860846
 31
0.0
  0
LINE
  8
0
 10
4.735393
 20
1.000102
 30
0.0
 11
5.744267
 21
1.000102
 31
0.0
  0
LINE
  8
0
 10
4.735393
 20
0.0
 30
0.0
 11
5.67959
 21
0.0
 31
0.0
  0
LINE
  8
0
 10
4.735393
 20
0.0
 30
0.0
 11
4.735393
 21
0.155558
 31
0.0
  0
LINE
  8
0
 10
4.735393
 20
0.857157
 30
0.0
 11
4.735393
 21
1.000102
 31
0.0
  0
LINE
  8
0
 10
5.262708
 20
0.155558
 30
0.0
 11
5.525364
 21
0.155558
 31
0.0
  0
LINE
  8
0
 10
4.167048
 20
0.423816
 30
0.0
 11
4.167048
 21
0.857157
 31
0.0
  0
LINE
  8
0
 10
3.515906
 20
0.155558
 30
0.0
 11
3.515906
 21
0.512378
 31
0.0
  0
LINE
  8
0
 10
4.167048
 20
0.423816
 30
0.0
 11
3.582329
 21
1.000102
 31
0.0
  0
LINE
  8
0
 10
4.069752
 20
0.0
 30
0.0
 11
3.515906
 21
0.512378
 31
0.0
  0
LINE
  8
0
 10
3.055014
 20
0.857157
 30
0.0
 11
3.202764
 21
0.857157
 31
0.0
  0
LINE
  8
0
 10
3.055014
 20
0.155558
 30
0.0
 11
3.202764
 21
0.155558
 31
0.0
  0
LINE
  8
0
 10
3.202764
 20
0.155558
 30
0.0
 11
3.202764
 21
0.857157
 31
0.0
  0
LINE
  8
0
 10
4.43388
 20
0.0
 30
0.0
 11
4.43388
 21
0.857157
 31
0.0
  0
LINE
  8
0
 10
3.055014
 20
1.000102
 30
0.0
 11
3.582329
 21
1.000102
 31
0.0
  0
LINE
  8
0
 10
3.055014
 20
0.0
 30
0.0
 11
3.657307
 21
0.0
 31
0.0
  0
LINE
  8
0
 10
3.055014
 20
0.0
 30
0.0
 11
3.055014
 21
0.155558
 31
0.0
  0
LINE
  8
0
 10
3.657307
 20
0.0
 30
0.0
 11
3.657307
 21
0.155558
 31
0.0
  0
LINE
  8
0
 10
3.055014
 20
0.857157
 30
0.0
 11
3.055014
 21
1.000102
 31
0.0
  0
LINE
  8
0
 10
4.597067
 20
0.857157
 30
0.0
 11
4.597067
 21
1.000102
 31
0.0
  0
LINE
  8
0
 10
4.069752
 20
0.0
 30
0.0
 11
4.43388
 21
0.0
 31
0.0
  0
LINE
  8
0
 10
3.994774
 20
0.857157
 30
0.0
 11
3.994774
 21
1.000102
 31
0.0
  0
LINE
  8
0
 10
3.994774
 20
1.000102
 30
0.0
 11
4.597067
 21
1.000102
 31
0.0
  0
LINE
  8
0
 10
3.994774
 20
0.857157
 30
0.0
 11
4.167048
 21
0.857157
 31
0.0
  0
LINE
  8
0
 10
4.43388
 20
0.857157
 30
0.0
 11
4.597067
 21
0.857157
 31
0.0
  0
LINE
  8
0
 10
3.515906
 20
0.155558
 30
0.0
 11
3.657307
 21
0.155558
 31
0.0
  0
POLYLINE
  8
0
 66
     1
 10
0.0
 20
0.0
 30
0.0
 70
     1
  0
VERTEX
  8
0
 10
2.29222
 20
0.865784
 30
0.0
 42
0.095288
  0
VERTEX
  8
0
 10
2.156474
 20
0.839677
 30
0.0
 42
0.097106
  0
VERTEX
  8
0
 10
2.042499
 20
0.76604
 30
0.0
 42
0.099793
 70
     2
 50
223.958373
  0
VERTEX
  8
0
 10
1.959222
 20
0.645522
 30
0.0
 42
0.120402
 50
223.958373
  0
VERTEX
  8
0
 10
1.939061
 20
0.525238
 30
0.0
 42
0.10178
  0
VERTEX
  8
0
 10
1.965743
 20
0.395516
 30
0.0
 42
0.099793
  0
VERTEX
  8
0
 10
2.042499
 20
0.284435
 30
0.0
 42
0.097106
 70
     2
 50
316.041627
  0
VERTEX
  8
0
 10
2.156474
 20
0.210798
 30
0.0
 42
0.095288
 50
316.041627
  0
VERTEX
  8
0
 10
2.29222
 20
0.184691
 30
0.0
 42
0.095288
  0
VERTEX
  8
0
 10
2.427966
 20
0.210798
 30
0.0
 42
0.097106
  0
VERTEX
  8
0
 10
2.541941
 20
0.284435
 30
0.0
 42
0.099793
 70
     2
 50
43.958373
  0
VERTEX
  8
0
 10
2.618697
 20
0.395516
 30
0.0
 42
0.10178
 50
43.958373
  0
VERTEX
  8
0
 10
2.645379
 20
0.525238
 30
0.0
 42
0.10178
  0
VERTEX
  8
0
 10
2.618697
 20
0.654959
 30
0.0
 42
0.099793
  0
VERTEX
  8
0
 10
2.541941
 20
0.76604
 30
0.0
 42
0.097106
 70
     2
 50
136.041627
  0
VERTEX
  8
0
 10
2.427966
 20
0.839677
 30
0.0
 42
0.095288
 50
136.041627
  0
SEQEND
  8
0
  0
POLYLINE
  8
0
 66
     1
 10
0.0
 20
0.0
 30
0.0
 70
     1
  0
VERTEX
  8
0
 10
3.004506
 20
0.481093
 30
0.0
 42
0.126822
  0
VERTEX
  8
0
 10
2.953819
 20
0.677713
 30
0.0
 42
0.10607
  0
VERTEX
  8
0
 10
2.795237
 20
0.860009
 30
0.0
 42
0.085783
 70
     2
 50
143.130102
  0
VERTEX
  8
0
 10
2.548648
 20
0.985999
 30
0.0
 42
0.091282
 50
143.130102
  0
VERTEX
  8
0
 10
2.290015
 20
1.016961
 30
0.0
 42
0.075445
  0
VERTEX
  8
0
 10
2.008312
 20
0.974212
 30
0.0
 42
0.085783
  0
VERTEX
  8
0
 10
1.784793
 20
0.860009
 30
0.0
 42
0.10607
 70
     2
 50
216.869898
  0
VERTEX
  8
0
 10
1.62621
 20
0.677713
 30
0.0
 42
0.126822
 50
216.869898
  0
VERTEX
  8
0
 10
1.575523
 20
0.481093
 30
0.0
 42
0.160264
  0
VERTEX
  8
0
 10
1.62621
 20
0.328617
 30
0.0
 42
0.10607
  0
VERTEX
  8
0
 10
1.784793
 20
0.146321
 30
0.0
 42
0.085783
 70
     2
 50
323.130102
  0
VERTEX
  8
0
 10
2.008312
 20
0.032118
 30
0.0
 42
0.075445
 50
323.130102
  0
VERTEX
  8
0
 10
2.290015
 20
-0.010631
 30
0.0
 42
0.075445
  0
VERTEX
  8
0
 10
2.571717
 20
0.032118
 30
0.0
 42
0.085783
  0
VERTEX
  8
0
 10
2.795237
 20
0.146321
 30
0.0
 42
0.10607
 70
     2
 50
36.869898
  0
VERTEX
  8
0
 10
2.953819
 20
0.328617
 30
0.0
 42
0.160264
 50
36.869898
  0
SEQEND
  8
0
  0
LINE
  8
0
 10
0.966685
 20
0.155558
 30
0.0
 11
0.904409
 21
0.155558
 31
0.0
  0
LINE
  8
0
 10
0.527315
 20
0.857157
 30
0.0
 11
0.602293
 21
0.857157
 31
0.0
  0
LINE
  8
0
 10
0.527315
 20
0.155558
 30
0.0
 11
0.602293
 21
0.155558
 31
0.0
  0
LINE
  8
0
 10
1.405792
 20
0.857157
 30
0.0
 11
1.494
 21
0.857157
 31
0.0
  0
LINE
  8
0
 10
0.966685
 20
0.575471
 30
0.0
 11
0.966685
 21
0.857157
 31
0.0
  0
LINE
  8
0
 10
0.527315
 20
0.575471
 30
0.0
 11
0.527315
 21
0.857157
 31
0.0
  0
LINE
  8
0
 10
0.527315
 20
0.575471
 30
0.0
 11
0.966685
 21
0.575471
 31
0.0
  0
LINE
  8
0
 10
0.527315
 20
0.47667
 30
0.0
 11
0.966685
 21
0.47667
 31
0.0
  0
LINE
  8
0
 10
0.891708
 20
0.857157
 30
0.0
 11
0.966685
 21
0.857157
 31
0.0
  0
LINE
  8
0
 10
0.891708
 20
1.000102
 30
0.0
 11
1.494
 21
1.000102
 31
0.0
  0
LINE
  8
0
 10
0.891708
 20
0.857157
 30
0.0
 11
0.891708
 21
1.000102
 31
0.0
  0
LINE
  8
0
 10
0.602293
 20
0.857157
 30
0.0
 11
0.602293
 21
1.000102
 31
0.0
  0
LINE
  8
0
 10
0.891708
 20
0.0
 30
0.0
 11
1.494
 21
0.0
 31
0.0
  0
LINE
  8
0
 10
1.405792
 20
0.155558
 30
0.0
 11
1.494
 21
0.155558
 31
0.0
  0
LINE
  8
0
 10
1.494
 20
0.857157
 30
0.0
 11
1.494
 21
1.000102
 31
0.0
  0
LINE
  8
0
 10
0.0
 20
0.857157
 30
0.0
 11
0.0
 21
1.000102
 31
0.0
  0
LINE
  8
0
 10
1.494
 20
0.0
 30
0.0
 11
1.494
 21
0.155558
 31
0.0
  0
LINE
  8
0
 10
0.891708
 20
0.0
 30
0.0
 11
0.891708
 21
0.155558
 31
0.0
  0
LINE
  8
0
 10
0.602293
 20
0.0
 30
0.0
 11
0.602293
 21
0.155558
 31
0.0
  0
LINE
  8
0
 10
0.0
 20
0.0
 30
0.0
 11
0.0
 21
0.155558
 31
0.0
  0
LINE
  8
0
 10
0.0
 20
0.0
 30
0.0
 11
0.602293
 21
0.0
 31
0.0
  0
LINE
  8
0
 10
0.0
 20
1.000102
 30
0.0
 11
0.602293
 21
1.000102
 31
0.0
  0
LINE
  8
0
 10
1.405792
 20
0.155558
 30
0.0
 11
1.405792
 21
0.857157
 31
0.0
  0
LINE
  8
0
 10
0.966685
 20
0.155558
 30
0.0
 11
0.966685
 21
0.47667
 31
0.0
  0
LINE
  8
0
 10
0.527315
 20
0.155558
 30
0.0
 11
0.527315
 21
0.47667
 31
0.0
  0
LINE
  8
0
 10
0.088209
 20
0.155558
 30
0.0
 11
0.088209
 21
0.857157
 31
0.0
  0
LINE
  8
0
 10
0.0
 20
0.155558
 30
0.0
 11
0.088209
 21
0.155558
 31
0.0
  0
LINE
  8
0
 10
0.0
 20
0.857157
 30
0.0
 11
0.088209
 21
0.857157
 31
0.0
  0
ENDBLK
  8
0
  0
BLOCK
  8
0
  2
AD_LOGO
 70
     0
 10
0.0
 20
0.0
 30
0.0
  3
AD_LOGO
  0
TEXT
  8
0
 10
-3.328724
 20
-3.847319
 30
0.0
 40
0.210813
  1
IMAGE LIBRARY '90
  7
LOG
 72
     4
 11
-1.707475
 21
-3.721835
 31
0.0
  0
TEXT
  8
0
 10
-2.550725
 20
-3.475887
 30
0.0
 40
0.210813
  1
AUTODESK
  7
LOG
 72
     4
 11
-1.707475
 21
-3.370481
 31
0.0
  0
LINE
  8
0
 10
-2.16389
 20
-2.809831
 30
0.0
 11
-1.707475
 21
-2.027407
 31
0.0
  0
LINE
  8
0
 10
-1.903475
 20
-1.831407
 30
0.0
 11
-2.252913
 21
-2.809831
 31
0.0
  0
LINE
  8
0
 10
-1.707475
 20
-1.831407
 30
0.0
 11
-1.903475
 21
-1.831407
 31
0.0
  0
LINE
  8
0
 10
-2.50689
 20
-2.809831
 30
0.0
 11
-1.707475
 21
-1.439407
 31
0.0
  0
LINE
  8
0
 10
-1.903475
 20
-1.243407
 30
0.0
 11
-2.569206
 21
-2.809831
 31
0.0
  0
LINE
  8
0
 10
-1.707475
 20
-1.243407
 30
0.0
 11
-1.903475
 21
-1.243407
 31
0.0
  0
LINE
  8
0
 10
-2.84989
 20
-2.809831
 30
0.0
 11
-1.707938
 21
-0.8522
 31
0.0
  0
LINE
  8
0
 10
-1.924475
 20
-0.508407
 30
0.0
 11
-2.9108
 21
-2.809831
 31
0.0
  0
LINE
  8
0
 10
-2.9108
 20
-0.508407
 30
0.0
 11
-1.924475
 21
-0.508407
 31
0.0
  0
LINE
  8
0
 10
-1.707475
 20
-2.027407
 30
0.0
 11
-1.251061
 21
-2.809831
 31
0.0
  0
LINE
  8
0
 10
-1.162038
 20
-2.809831
 30
0.0
 11
-1.511475
 21
-1.831407
 31
0.0
  0
LINE
  8
0
 10
-1.511475
 20
-1.831407
 30
0.0
 11
-1.707475
 21
-1.831407
 31
0.0
  0
LINE
  8
0
 10
-1.707475
 20
-1.439407
 30
0.0
 11
-0.908061
 21
-2.809831
 31
0.0
  0
LINE
  8
0
 10
-0.845745
 20
-2.809831
 30
0.0
 11
-1.511475
 21
-1.243407
 31
0.0
  0
LINE
  8
0
 10
-1.511475
 20
-1.243407
 30
0.0
 11
-1.707475
 21
-1.243407
 31
0.0
  0
LINE
  8
0
 10
-0.504391
 20
-0.508032
 30
0.0
 11
-1.491933
 21
-0.508849
 31
0.0
  0
LINE
  8
0
 10
-0.504391
 20
-2.809831
 30
0.0
 11
-1.491933
 21
-0.508849
 31
0.0
  0
LINE
  8
0
 10
-1.707938
 20
-0.8522
 30
0.0
 11
-0.564976
 21
-2.809831
 31
0.0
  0
LINE
  8
0
 10
-0.504391
 20
-2.809831
 30
0.0
 11
-0.504391
 21
-0.508032
 31
0.0
  0
LINE
  8
0
 10
-2.9108
 20
-2.809831
 30
0.0
 11
-2.9108
 21
-0.508407
 31
0.0
  0
LINE
  8
0
 10
-0.845745
 20
-2.809831
 30
0.0
 11
-0.564976
 21
-2.809831
 31
0.0
  0
LINE
  8
0
 10
-1.162038
 20
-2.809831
 30
0.0
 11
-0.908061
 21
-2.809831
 31
0.0
  0
LINE
  8
0
 10
-2.84989
 20
-2.809831
 30
0.0
 11
-2.569206
 21
-2.809831
 31
0.0
  0
LINE
  8
0
 10
-2.50689
 20
-2.809831
 30
0.0
 11
-2.252913
 21
-2.809831
 31
0.0
  0
LINE
  8
0
 10
-2.16389
 20
-2.809831
 30
0.0
 11
-1.251061
 21
-2.809831
 31
0.0
  0
SOLID
  8
0
 10
-2.9108
 20
-0.508407
 30
0.0
 11
-1.924475
 21
-0.508407
 31
0.0
 12
-2.9108
 22
-2.809831
 32
0.0
 13
-2.9108
 23
-2.809831
 33
0.0
  0
SOLID
  8
0
 10
-1.491933
 20
-0.508849
 30
0.0
 11
-0.504391
 21
-0.508032
 31
0.0
 12
-0.504391
 22
-2.809831
 32
0.0
 13
-0.504391
 23
-2.809831
 33
0.0
  0
SOLID
  8
0
 10
-1.707475
 20
-2.027407
 30
0.0
 11
-1.251061
 21
-2.809831
 31
0.0
 12
-2.16389
 22
-2.809831
 32
0.0
 13
-2.16389
 23
-2.809831
 33
0.0
  0
SOLID
  8
0
 10
-1.707938
 20
-0.8522
 30
0.0
 11
-1.479532
 21
-1.243407
 31
0.0
 12
-1.936142
 22
-1.243407
 32
0.0
 13
-1.936142
 23
-1.243407
 33
0.0
  0
SOLID
  8
0
 10
-1.707475
 20
-1.439407
 30
0.0
 11
-1.478809
 21
-1.831407
 31
0.0
 12
-1.936142
 22
-1.831407
 32
0.0
 13
-1.936142
 23
-1.831407
 33
0.0
  0
SOLID
  8
0
 10
-2.50689
 20
-2.809831
 30
0.0
 11
-1.936142
 21
-1.831407
 31
0.0
 12
-2.252913
 22
-2.809831
 32
0.0
 13
-1.903475
 23
-1.831407
 33
0.0
  0
SOLID
  8
0
 10
-1.162038
 20
-2.809831
 30
0.0
 11
-1.511475
 21
-1.831407
 31
0.0
 12
-0.908061
 22
-2.809831
 32
0.0
 13
-1.478809
 23
-1.831407
 33
0.0
  0
SOLID
  8
0
 10
-2.569206
 20
-2.809831
 30
0.0
 11
-1.903475
 21
-1.243407
 31
0.0
 12
-2.84989
 22
-2.809831
 32
0.0
 13
-1.936142
 23
-1.243407
 33
0.0
  0
SOLID
  8
0
 10
-0.845745
 20
-2.809831
 30
0.0
 11
-1.511475
 21
-1.243407
 31
0.0
 12
-0.564976
 22
-2.809831
 32
0.0
 13
-1.479532
 23
-1.243407
 33
0.0
  0
TEXT
  8
0
 10
-0.350822
 20
-2.7769
 30
0.0
 40
0.000673
  1
02
  7
LOG
  0
TEXT
  8
0
 10
-0.426908
 20
-2.776554
 30
0.0
 40
0.093234
  1
R
  7
LOG
  0
CIRCLE
  8
0
 10
-0.382352
 20
-2.730127
 30
0.0
 40
0.077673
  0
ENDBLK
  8
0
  0
BLOCK
  8
0
  2
NAMEINFO
 70
     2
 10
0.0
 20
0.0
 30
0.0
  3
NAMEINFO
  0
ATTDEF
  8
0
 10
-3.628614
 20
-0.252723
 30
0.0
 40
0.21
  1

  3
Drawing name
  2
AD_LOGO_DWG_NAME
 70
     0
  7
LOG
 72
     2
 11
-0.088614
 21
-0.252723
 31
0.0
  0
ENDBLK
  8
0
  0
ENDSEC
  0
SECTION
  2
ENTITIES
  0
ARC
  8
FENDER
 10
78.028523
 20
19.961851
 30
0.0
 40
12.75368
 50
126.475199
 51
126.503431
  0
LINE
  8
FENDER
 10
70.690541
 20
29.877322
 30
0.0
 11
70.818505
 21
29.70441
 31
0.0
  0
ARC
  8
FENDER
 10
74.696586
 20
31.518849
 30
0.0
 40
0.25
 50
293.434476
 51
19.930124
  0
LINE
  8
FENDER
 10
74.489458
 20
31.156594
 30
0.0
 11
74.796011
 21
31.28947
 31
0.0
  0
LINE
  8
FENDER
 10
74.430087
 20
26.334576
 30
0.0
 11
73.093139
 21
29.33741
 31
0.0
  0
LINE
  8
FENDER
 62
     8
 10
76.00712
 20
27.036717
 30
0.0
 11
76.088468
 21
26.854008
 31
0.0
  0
LINE
  8
FENDER
 62
     8
 10
73.757973
 20
26.035332
 30
0.0
 11
73.858388
 21
25.861112
 31
0.0
  0
LINE
  8
FENDER
 62
     8
 10
76.088468
 20
26.854008
 30
0.0
 11
73.858388
 21
25.861112
 31
0.0
  0
LINE
  8
FENDER
 62
     8
 10
76.00712
 20
27.036717
 30
0.0
 11
73.757973
 21
26.035332
 31
0.0
  0
ARC
  8
FENDER
 10
76.071035
 20
26.95571
 30
0.0
 40
0.125
 50
257.130102
 51
150.869898
  0
ARC
  8
FENDER
 10
78.028523
 20
19.961851
 30
0.0
 40
12.75368
 50
119.624642
 51
124.476754
  0
ARC
  8
FENDER
 10
73.563801
 20
30.77823
 30
0.0
 40
1.0
 50
294.0
 51
22.23238
  0
LINE
  8
FENDER
 10
73.970538
 20
29.864684
 30
0.0
 11
73.150413
 21
29.499541
 31
0.0
  0
ARC
  8
FENDER
 10
73.207332
 20
29.388252
 30
0.0
 40
0.125
 50
117.087751
 51
204.0
  0
ARC
  8
FENDER
 10
74.740421
 20
25.944879
 30
0.0
 40
0.125
 50
204.0
 51
293.853785
  0
ARC
  8
FENDER
 10
72.024237
 20
30.596716
 30
0.0
 40
1.5
 50
216.503431
 51
299.448421
  0
ARC
  8
FENDER
 10
78.028523
 20
19.961851
 30
0.0
 40
10.712772
 50
119.431369
 51
119.448421
  0
LINE
  8
FENDER
 10
74.626228
 20
25.894037
 30
0.0
 11
74.511434
 21
26.151867
 31
0.0
  0
LINE
  8
FENDER
 10
70.44173
 20
30.21353
 30
0.0
 11
70.445148
 21
30.20891
 31
0.0
  0
ARC
  8
FENDER
 10
75.855923
 20
28.488245
 30
0.0
 40
2.0
 50
293.853785
 51
320.062314
  0
ARC
  8
FENDER
 10
79.979407
 20
27.182315
 30
0.0
 40
2.0
 50
100.856099
 51
140.062314
  0
LINE
  8
FENDER
 10
77.389409
 20
27.204337
 30
0.0
 11
78.445921
 21
28.466224
 31
0.0
  0
LINE
  8
FENDER
 10
79.602721
 20
29.146522
 30
0.0
 11
85.522265
 21
30.281743
 31
0.0
  0
LINE
  8
FENDER
 10
74.790971
 20
25.830556
 30
0.0
 11
76.664731
 21
26.659085
 31
0.0
  0
ARC
  8
FENDER
 10
78.028523
 20
19.961851
 30
0.0
 40
10.712772
 50
65.377957
 51
117.087751
  0
ARC
  8
FENDER
 10
78.028523
 20
19.961851
 30
0.0
 40
12.75368
 50
54.014898
 51
108.375358
  0
ARC
  8
FCALIPER
 62
     8
 10
71.744451
 20
24.60343
 30
0.0
 40
0.1
 50
203.957313
 51
248.957313
  0
ARC
  8
FWHEEL
 62
     1
 10
78.028523
 20
19.961851
 30
0.0
 40
7.763626
 50
142.770588
 51
144.214695
  0
ARC
  8
FWHEEL
 62
     1
 10
78.028523
 20
19.961851
 30
0.0
 40
8.135811
 50
141.73887
 51
143.493741
  0
ARC
  8
FWHEEL
 62
     1
 10
78.028523
 20
19.961851
 30
0.0
 40
8.468449
 50
141.034581
 51
142.846126
  0
ARC
  8
FWHEEL
 62
     1
 10
78.028523
 20
19.961851
 30
0.0
 40
9.166861
 50
142.626869
 51
82.313725
  0
ARC
  8
FWHEEL
 62
     8
 10
78.028523
 20
19.961851
 30
0.0
 40
10.064034
 50
138.773607
 51
70.948433
  0
ARC
  8
FWHEEL
 10
78.028523
 20
19.961851
 30
0.0
 40
11.561254
 50
132.120278
 51
59.844151
  0
LINE
  8
FCALIPER
 62
     8
 10
71.189282
 20
25.17105
 30
0.0
 11
70.921832
 21
25.035142
 31
0.0
  0
LINE
  8
FCALIPER
 62
     8
 10
70.985129
 20
24.689844
 30
0.0
 11
70.921832
 21
25.035142
 31
0.0
  0
LINE
  8
FCALIPER
 62
     8
 10
71.430878
 20
24.916357
 30
0.0
 11
71.189282
 21
25.17105
 31
0.0
  0
LINE
  8
FCALIPER
 62
     8
 10
71.430878
 20
24.916357
 30
0.0
 11
70.985129
 21
24.689844
 31
0.0
  0
LINE
  8
FCALIPER
 62
     8
 10
71.088545
 20
24.486334
 30
0.0
 11
70.985129
 21
24.689844
 31
0.0
  0
LINE
  8
FCALIPER
 62
     8
 10
71.546088
 20
24.689637
 30
0.0
 11
71.430878
 21
24.916357
 31
0.0
  0
LINE
  8
FCALIPER
 62
     8
 10
71.588371
 20
24.708425
 30
0.0
 11
71.046261
 21
24.467546
 31
0.0
  0
ARC
  8
FCALIPER
 62
     8
 10
71.413965
 20
24.25569
 30
0.0
 40
0.25
 50
203.957313
 51
248.957313
  0
LINE
  8
FCALIPER
 62
     8
 10
71.046261
 20
24.467546
 30
0.0
 11
71.185503
 21
24.154176
 31
0.0
  0
LINE
  8
FCALIPER
 62
     8
 10
71.588371
 20
24.708425
 30
0.0
 11
71.653067
 21
24.562825
 31
0.0
  0
LINE
  8
FWHEEL
 62
     1
 10
75.236488
 20
19.536803
 30
0.0
 11
75.027221
 21
19.438537
 31
0.0
  0
ARC
  8
FROTOR
 10
78.028523
 20
19.961851
 30
0.0
 40
1.652129
 50
178.244621
 51
76.138601
  0
ARC
  8
FROTOR
 10
78.028523
 20
19.961851
 30
0.0
 40
1.988176
 50
182.83319
 51
83.335156
  0
LINE
  8
FROTOR
 10
75.393071
 20
19.953946
 30
0.0
 11
75.578357
 21
20.001154
 31
0.0
  0
LINE
  8
FEND
 10
73.230309
 20
26.91078
 30
0.0
 11
72.777489
 21
26.604568
 31
0.0
  0
LINE
  8
FEND
 10
73.758479
 20
26.114558
 30
0.0
 11
73.529931
 21
26.031639
 31
0.0
  0
LINE
  8
FEND
 10
74.120691
 20
26.245972
 30
0.0
 11
73.987581
 21
26.197678
 31
0.0
  0
LINE
  8
FEND
 10
73.687154
 20
27.219712
 30
0.0
 11
73.529294
 21
27.112962
 31
0.0
  0
LINE
  8
FCALIPER
 10
75.054617
 20
19.4893
 30
0.0
 11
74.957001
 21
19.708551
 31
0.0
  0
LINE
  8
FCALIPER
 10
75.494631
 20
19.685206
 30
0.0
 11
75.681904
 21
19.768586
 31
0.0
  0
LINE
  8
FCALIPER
 10
75.976582
 20
20.031141
 30
0.0
 11
76.229366
 21
20.143688
 31
0.0
  0
LINE
  8
FCALIPER
 10
75.40035
 20
19.905943
 30
0.0
 11
75.584287
 21
19.987836
 31
0.0
  0
LINE
  8
FCALIPER
 10
76.302578
 20
19.97925
 30
0.0
 11
76.616329
 21
20.11894
 31
0.0
  0
LINE
  8
FCALIPER
 10
76.156153
 20
20.308126
 30
0.0
 11
76.584097
 21
20.498659
 31
0.0
  0
LINE
  8
FCALIPER
 10
76.326983
 20
19.924437
 30
0.0
 11
76.131749
 21
20.362939
 31
0.0
  0
LINE
  8
FCALIPER
 10
76.074199
 20
19.81189
 30
0.0
 11
75.878965
 21
20.250392
 31
0.0
  0
LINE
  8
FCALIPER
 10
75.535478
 20
20.097462
 30
0.0
 11
75.741608
 21
20.189237
 31
0.0
  0
LINE
  8
FCALIPER
 10
75.730712
 20
19.65896
 30
0.0
 11
75.936842
 21
19.750735
 31
0.0
  0
LINE
  8
FCALIPER
 10
74.957001
 20
19.708551
 30
0.0
 11
75.123099
 21
19.782502
 31
0.0
  0
LINE
  8
FCALIPER
 10
75.054617
 20
19.4893
 30
0.0
 11
75.224051
 21
19.564737
 31
0.0
  0
ARC
  8
FCALIPER
 10
75.493031
 20
20.393192
 30
0.0
 40
0.2
 50
294.0
 51
24.0
  0
CIRCLE
  8
FCALIPER
 10
75.415169
 20
20.412886
 30
0.0
 40
0.164649
  0
LINE
  8
FCALIPER
 10
75.005809
 20
19.598925
 30
0.0
 11
75.175243
 21
19.674362
 31
0.0
  0
ARC
  8
FCALIPER
 10
74.915364
 20
19.643411
 30
0.0
 40
0.25
 50
24.0
 51
114.0
  0
ARC
  8
FCALIPER
 10
75.642717
 20
19.96725
 30
0.0
 40
0.25
 50
114.0
 51
204.0
  0
LINE
  8
FCALIPER
 10
75.67574
 20
20.474539
 30
0.0
 11
74.986256
 21
22.023144
 31
0.0
  0
LINE
  8
FCALIPER
 10
74.81368
 20
19.871798
 30
0.0
 11
74.025524
 21
21.642025
 31
0.0
  0
LINE
  8
FEND
 10
74.81368
 20
19.871798
 30
0.0
 11
74.81368
 21
19.871798
 31
0.0
  0
LINE
  8
FCALIPER
 10
75.527588
 20
19.611184
 30
0.0
 11
75.257009
 21
19.490714
 31
0.0
  0
LINE
  8
FCALIPER
 10
75.257009
 20
19.490714
 30
0.0
 11
75.14375
 21
19.745096
 31
0.0
  0
LINE
  8
FCALIPER
 10
75.527588
 20
19.611184
 30
0.0
 11
75.41433
 21
19.865566
 31
0.0
  0
LINE
  8
FEND
 10
75.468827
 20
20.939272
 30
0.0
 11
74.52542
 21
20.51924
 31
0.0
  0
LINE
  8
FCALIPER
 10
75.574378
 20
20.210482
 30
0.0
 11
75.541032
 21
20.195636
 31
0.0
  0
ARC
  8
FCALIPER
 10
74.907986
 20
23.197187
 30
0.0
 40
0.25
 50
349.3245
 51
24.0
  0
ARC
  8
FCALIPER
 10
74.25391
 20
21.743709
 30
0.0
 40
0.25
 50
169.3245
 51
204.0
  0
ARC
  8
FCALIPER
 10
75.214643
 20
22.124828
 30
0.0
 40
0.25
 50
169.3245
 51
204.0
  0
LINE
  8
FCALIPER
 10
74.020818
 20
21.856759
 30
0.0
 11
74.008237
 21
21.790021
 31
0.0
  0
LINE
  8
FCALIPER
 62
     8
 10
71.674345
 20
24.048371
 30
0.0
 11
72.188337
 21
23.850629
 31
0.0
  0
LINE
  8
FCALIPER
 62
     8
 10
71.779629
 20
24.322034
 30
0.0
 11
72.293621
 21
24.124291
 31
0.0
  0
LINE
  8
FCALIPER
 62
     8
 10
71.324199
 20
24.022361
 30
0.0
 11
72.134478
 21
23.710632
 31
0.0
  0
LINE
  8
FCALIPER
 62
     8
 10
71.708545
 20
24.510099
 30
0.0
 11
72.34748
 21
24.264288
 31
0.0
  0
LINE
  8
FCALIPER
 62
     8
 10
72.240979
 20
23.98746
 30
0.0
 11
72.357842
 21
23.942501
 31
0.0
  0
LINE
  8
FCALIPER
 62
     8
 10
72.358252
 20
24.292288
 30
0.0
 11
72.123706
 21
23.682632
 31
0.0
  0
LINE
  8
FCALIPER
 62
     8
 10
72.123706
 20
23.682632
 30
0.0
 11
72.240569
 21
23.637673
 31
0.0
  0
LINE
  8
FCALIPER
 62
     8
 10
72.358252
 20
24.292288
 30
0.0
 11
72.475115
 21
24.247328
 31
0.0
  0
LINE
  8
FCALIPER
 10
75.153659
 20
23.150875
 30
0.0
 11
74.96897
 21
22.171139
 31
0.0
  0
LINE
  8
FCALIPER
 10
74.336104
 20
25.056889
 30
0.0
 11
74.77705
 21
22.255668
 31
0.0
  0
LINE
  8
FCALIPER
 10
73.135019
 20
24.897349
 30
0.0
 11
73.61862
 21
25.318196
 31
0.0
  0
LINE
  8
FCALIPER
 10
75.136372
 20
23.298871
 30
0.0
 11
74.304652
 21
25.166945
 31
0.0
  0
LINE
  8
FCALIPER
 10
72.486161
 20
25.87164
 30
0.0
 11
73.278069
 21
25.021836
 31
0.0
  0
LINE
  8
FCALIPER
 10
73.12461
 20
26.466593
 30
0.0
 11
74.224291
 21
25.286515
 31
0.0
  0
LINE
  8
FCALIPER
 10
72.505385
 20
26.169116
 30
0.0
 11
72.655385
 21
25.909309
 31
0.0
  0
LINE
  8
FCALIPER
 10
72.655385
 20
26.428924
 30
0.0
 11
72.505385
 21
26.169116
 31
0.0
  0
LINE
  8
FCALIPER
 10
72.955385
 20
26.428924
 30
0.0
 11
72.655385
 21
26.428924
 31
0.0
  0
LINE
  8
FCALIPER
 10
73.105385
 20
26.169116
 30
0.0
 11
72.955385
 21
26.428924
 31
0.0
  0
LINE
  8
FCALIPER
 10
72.955385
 20
25.909309
 30
0.0
 11
73.105385
 21
26.169116
 31
0.0
  0
LINE
  8
FCALIPER
 10
72.655385
 20
25.909309
 30
0.0
 11
72.955385
 21
25.909309
 31
0.0
  0
ARC
  8
FCALIPER
 10
73.905067
 20
24.989039
 30
0.0
 40
0.436345
 50
8.945639
 51
131.031132
  0
LINE
  8
FCALIPER
 62
     8
 10
71.394286
 20
21.155476
 30
0.0
 11
71.47762
 21
21.011138
 31
0.0
  0
LINE
  8
FCALIPER
 62
     8
 10
71.47762
 20
21.299814
 30
0.0
 11
71.394286
 21
21.155476
 31
0.0
  0
LINE
  8
FCALIPER
 62
     8
 10
71.644286
 20
21.299814
 30
0.0
 11
71.47762
 21
21.299814
 31
0.0
  0
LINE
  8
FCALIPER
 62
     8
 10
71.72762
 20
21.155476
 30
0.0
 11
71.644286
 21
21.299814
 31
0.0
  0
LINE
  8
FCALIPER
 62
     8
 10
71.644286
 20
21.011138
 30
0.0
 11
71.72762
 21
21.155476
 31
0.0
  0
LINE
  8
FCALIPER
 62
     8
 10
71.47762
 20
21.011138
 30
0.0
 11
71.644286
 21
21.011138
 31
0.0
  0
LINE
  8
FCALIPER
 62
     8
 10
71.91336
 20
22.870509
 30
0.0
 11
71.996693
 21
22.726172
 31
0.0
  0
LINE
  8
FCALIPER
 62
     8
 10
71.996693
 20
23.014847
 30
0.0
 11
71.91336
 21
22.870509
 31
0.0
  0
LINE
  8
FCALIPER
 62
     8
 10
72.16336
 20
23.014847
 30
0.0
 11
71.996693
 21
23.014847
 31
0.0
  0
LINE
  8
FCALIPER
 62
     8
 10
72.246693
 20
22.870509
 30
0.0
 11
72.16336
 21
23.014847
 31
0.0
  0
LINE
  8
FCALIPER
 62
     8
 10
72.16336
 20
22.726172
 30
0.0
 11
72.246693
 21
22.870509
 31
0.0
  0
LINE
  8
FCALIPER
 62
     8
 10
71.996693
 20
22.726172
 30
0.0
 11
72.16336
 21
22.726172
 31
0.0
  0
LINE
  8
FCALIPER
 62
     8
 10
73.10435
 20
24.451556
 30
0.0
 11
73.187684
 21
24.307218
 31
0.0
  0
LINE
  8
FCALIPER
 62
     8
 10
73.187684
 20
24.595893
 30
0.0
 11
73.10435
 21
24.451556
 31
0.0
  0
LINE
  8
FCALIPER
 62
     8
 10
73.35435
 20
24.595893
 30
0.0
 11
73.187684
 21
24.595893
 31
0.0
  0
LINE
  8
FCALIPER
 62
     8
 10
73.437684
 20
24.451556
 30
0.0
 11
73.35435
 21
24.595893
 31
0.0
  0
LINE
  8
FCALIPER
 62
     8
 10
73.35435
 20
24.307218
 30
0.0
 11
73.437684
 21
24.451556
 31
0.0
  0
LINE
  8
FCALIPER
 62
     8
 10
73.187684
 20
24.307218
 30
0.0
 11
73.35435
 21
24.307218
 31
0.0
  0
LINE
  8
FCALIPER
 10
73.605067
 20
24.989039
 30
0.0
 11
73.755067
 21
24.729231
 31
0.0
  0
LINE
  8
FCALIPER
 10
73.755067
 20
25.248846
 30
0.0
 11
73.605067
 21
24.989039
 31
0.0
  0
LINE
  8
FCALIPER
 10
74.055067
 20
25.248846
 30
0.0
 11
73.755067
 21
25.248846
 31
0.0
  0
LINE
  8
FCALIPER
 10
74.205067
 20
24.989039
 30
0.0
 11
74.055067
 21
25.248846
 31
0.0
  0
LINE
  8
FCALIPER
 10
74.055067
 20
24.729231
 30
0.0
 11
74.205067
 21
24.989039
 31
0.0
  0
LINE
  8
FCALIPER
 10
73.755067
 20
24.729231
 30
0.0
 11
74.055067
 21
24.729231
 31
0.0
  0
ARC
  8
FCALIPER
 10
72.805385
 20
26.169116
 30
0.0
 40
0.436345
 50
42.980281
 51
222.980281
  0
ARC
  8
FCALIPER
 62
     8
 10
71.391291
 20
20.049301
 30
0.0
 40
0.09
 50
145.035553
 51
325.036031
  0
LINE
  8
FCALIPER
 62
     8
 10
71.6089
 20
20.622242
 30
0.0
 11
71.499822
 21
20.466255
 31
0.0
  0
LINE
  8
FCALIPER
 62
     8
 10
71.854753
 20
20.450322
 30
0.0
 11
71.745675
 21
20.294335
 31
0.0
  0
LINE
  8
FCALIPER
 62
     8
 10
71.499822
 20
20.466255
 30
0.0
 11
71.745675
 21
20.294335
 31
0.0
  0
LINE
  8
FCALIPER
 62
     8
 10
71.548993
 20
20.431871
 30
0.0
 11
71.317535
 21
20.100877
 31
0.0
  0
LINE
  8
FCALIPER
 62
     8
 10
71.696504
 20
20.328719
 30
0.0
 11
71.465047
 21
19.997726
 31
0.0
  0
LINE
  8
FCALIPER
 62
     8
 10
71.731827
 20
20.536282
 30
0.0
 11
71.622749
 21
20.380295
 31
0.0
  0
ARC
  8
FCALIPER
 10
72.348379
 20
20.672614
 30
0.0
 40
0.25
 50
70.198916
 51
135.082308
  0
LINE
  8
FCALIPER
 10
72.01777
 20
21.254307
 30
0.0
 11
71.877925
 21
21.054322
 31
0.0
  0
ARC
  8
FCALIPER
 10
73.839737
 20
21.623344
 30
0.0
 40
0.25
 50
84.389579
 51
147.388394
  0
LINE
  8
FCALIPER
 10
73.864177
 20
21.872146
 30
0.0
 11
74.36849
 21
21.822605
 31
0.0
  0
LINE
  8
FCALIPER
 10
74.299352
 20
23.158467
 30
0.0
 11
74.733838
 21
22.380686
 31
0.0
  0
INSERT
  8
FCALIPER
  2
HEXHEAD
 10
74.405283
 20
22.197147
 30
0.0
 41
0.45
 42
0.45
 43
0.45
  0
CIRCLE
  8
FCALIPER
 10
74.405283
 20
22.197147
 30
0.0
 40
0.376345
  0
CIRCLE
  8
FCALIPER
 10
73.905067
 20
24.989039
 30
0.0
 40
0.376345
  0
LINE
  8
FCALIPER
 10
73.629151
 20
21.758079
 30
0.0
 11
73.266649
 21
21.191504
 31
0.0
  0
LINE
  8
FCALIPER
 62
     8
 10
71.833488
 20
24.462031
 30
0.0
 11
71.620486
 21
23.908374
 31
0.0
  0
LINE
  8
FCALIPER
 10
72.229797
 20
23.609673
 30
0.0
 11
72.615945
 21
23.461115
 31
0.0
  0
LINE
  8
FCALIPER
 10
72.485887
 20
24.275328
 30
0.0
 11
73.53516
 21
23.871652
 31
0.0
  0
LINE
  8
FCALIPER
 10
72.05222
 20
23.51117
 30
0.0
 11
72.530955
 21
23.276457
 31
0.0
  0
LINE
  8
FCALIPER
 10
71.972982
 20
23.349549
 30
0.0
 11
72.492023
 21
23.095075
 31
0.0
  0
LINE
  8
FCALIPER
 10
71.170234
 20
21.669834
 30
0.0
 11
72.050106
 21
21.238453
 31
0.0
  0
LINE
  8
FCALIPER
 10
71.232721
 20
21.839667
 30
0.0
 11
71.972814
 21
21.476817
 31
0.0
  0
LINE
  8
FCALIPER
 10
71.563232
 20
22.513798
 30
0.0
 11
72.283221
 21
22.160804
 31
0.0
  0
LINE
  8
FCALIPER
 10
71.642471
 20
22.675419
 30
0.0
 11
72.498211
 21
22.255869
 31
0.0
  0
ARC
  8
FCALIPER
 10
72.672151
 20
21.571871
 30
0.0
 40
0.585767
 50
85.24239
 51
133.861827
  0
LINE
  8
FCALIPER
 62
     8
 10
72.797319
 20
21.450997
 30
0.0
 11
72.838717
 21
21.535433
 31
0.0
  0
LINE
  8
FCALIPER
 62
     8
 10
72.58957
 20
21.79276
 30
0.0
 11
72.600097
 21
21.814232
 31
0.0
  0
LINE
  8
FCALIPER
 62
     8
 10
72.797319
 20
21.450997
 30
0.0
 11
72.761015
 21
21.492935
 31
0.0
  0
LINE
  8
FCALIPER
 62
     8
 10
73.290815
 20
23.107041
 30
0.0
 11
73.254511
 21
23.148978
 31
0.0
  0
LINE
  8
FCALIPER
 62
     8
 10
73.033331
 20
21.932369
 30
0.0
 11
72.793725
 21
22.209156
 31
0.0
  0
LINE
  8
FCALIPER
 62
     8
 10
73.258105
 20
22.390819
 30
0.0
 11
73.018499
 21
22.667606
 31
0.0
  0
LINE
  8
FCALIPER
 62
     8
 10
73.282523
 20
22.440623
 30
0.0
 11
73.042918
 21
22.71741
 31
0.0
  0
LINE
  8
FCALIPER
 62
     8
 10
73.008913
 20
21.882565
 30
0.0
 11
72.769307
 21
22.159352
 31
0.0
  0
LINE
  8
FCALIPER
 62
     8
 10
73.295703
 20
22.467505
 30
0.0
 11
73.067157
 21
22.731516
 31
0.0
  0
LINE
  8
FCALIPER
 62
     8
 10
72.984673
 20
21.868459
 30
0.0
 11
72.756127
 21
22.13247
 31
0.0
  0
LINE
  8
FCALIPER
 62
     8
 10
73.458639
 20
22.835163
 30
0.0
 11
73.277456
 21
23.044461
 31
0.0
  0
LINE
  8
FCALIPER
 62
     8
 10
72.774374
 20
21.555514
 30
0.0
 11
72.593191
 21
21.764813
 31
0.0
  0
LINE
  8
FCALIPER
 62
     8
 10
72.835096
 20
21.563381
 30
0.0
 11
72.678978
 21
21.743726
 31
0.0
  0
LINE
  8
FCALIPER
 62
     8
 10
73.372852
 20
22.85625
 30
0.0
 11
73.216734
 21
23.036594
 31
0.0
  0
LINE
  8
FCALIPER
 62
     8
 10
72.898887
 20
21.889546
 30
0.0
 11
72.731708
 21
22.082666
 31
0.0
  0
LINE
  8
FCALIPER
 62
     8
 10
72.621169
 20
21.828455
 30
0.0
 11
72.881436
 21
21.847375
 31
0.0
  0
LINE
  8
FCALIPER
 62
     8
 10
72.696428
 20
21.785897
 30
0.0
 11
72.956695
 21
21.804817
 31
0.0
  0
LINE
  8
FCALIPER
 62
     8
 10
73.095135
 20
22.795159
 30
0.0
 11
73.355402
 21
22.814078
 31
0.0
  0
LINE
  8
FCALIPER
 62
     8
 10
73.170394
 20
22.7526
 30
0.0
 11
73.430661
 21
22.77152
 31
0.0
  0
LINE
  8
FCALIPER
 62
     8
 10
73.213113
 20
23.064542
 30
0.0
 11
73.254511
 21
23.148978
 31
0.0
  0
LINE
  8
FCALIPER
 62
     8
 10
73.451733
 20
22.785744
 30
0.0
 11
73.46226
 21
22.807215
 31
0.0
  0
LINE
  8
FCALIPER
 62
     8
 10
72.731708
 20
22.082666
 30
0.0
 11
72.756127
 21
22.13247
 31
0.0
  0
LINE
  8
FCALIPER
 62
     8
 10
72.977767
 20
21.81904
 30
0.0
 11
72.988294
 21
21.840512
 31
0.0
  0
LINE
  8
FCALIPER
 62
     8
 10
73.063536
 20
22.759464
 30
0.0
 11
73.074063
 21
22.780935
 31
0.0
  0
LINE
  8
FCALIPER
 62
     8
 10
73.295703
 20
22.467505
 30
0.0
 11
73.320122
 21
22.517309
 31
0.0
  0
LINE
  8
FCALIPER
 62
     8
 10
72.769307
 20
22.159352
 30
0.0
 11
72.793725
 21
22.209156
 31
0.0
  0
LINE
  8
FCALIPER
 62
     8
 10
73.008913
 20
21.882565
 30
0.0
 11
73.033331
 21
21.932369
 31
0.0
  0
LINE
  8
FCALIPER
 62
     8
 10
73.273835
 20
23.072409
 30
0.0
 11
73.290815
 21
23.107041
 31
0.0
  0
LINE
  8
FCALIPER
 62
     8
 10
72.761015
 20
21.492935
 30
0.0
 11
72.777995
 21
21.527567
 31
0.0
  0
LINE
  8
FCALIPER
 62
     8
 10
73.046511
 20
21.959251
 30
0.0
 11
73.010207
 21
22.001188
 31
0.0
  0
LINE
  8
FCALIPER
 62
     8
 10
73.096079
 20
22.535881
 30
0.0
 11
73.059775
 21
22.577818
 31
0.0
  0
LINE
  8
FCALIPER
 62
     8
 10
72.883028
 20
22.391298
 30
0.0
 11
73.005319
 21
22.640724
 31
0.0
  0
LINE
  8
FCALIPER
 62
     8
 10
73.018499
 20
22.667606
 30
0.0
 11
73.042918
 21
22.71741
 31
0.0
  0
LINE
  8
FCALIPER
 62
     8
 10
73.258105
 20
22.390819
 30
0.0
 11
73.282523
 21
22.440623
 31
0.0
  0
LINE
  8
FCALIPER
 62
     8
 10
73.046511
 20
21.959251
 30
0.0
 11
73.168802
 21
22.208677
 31
0.0
  0
LINE
  8
FCALIPER
 62
     8
 10
72.94375
 20
22.399165
 30
0.0
 11
73.041623
 21
22.598787
 31
0.0
  0
LINE
  8
FCALIPER
 62
     8
 10
73.074098
 20
22.224825
 30
0.0
 11
72.947371
 21
22.371217
 31
0.0
  0
LINE
  8
FCALIPER
 62
     8
 10
73.104459
 20
22.228758
 30
0.0
 11
72.977732
 21
22.37515
 31
0.0
  0
LINE
  8
FCALIPER
 62
     8
 10
73.010207
 20
22.001188
 30
0.0
 11
73.10808
 21
22.200811
 31
0.0
  0
LINE
  8
FCALIPER
 62
     8
 10
72.992055
 20
22.022157
 30
0.0
 11
73.077719
 21
22.196877
 31
0.0
  0
LINE
  8
FCALIPER
 62
     8
 10
72.955751
 20
22.064095
 30
0.0
 11
73.016996
 21
22.18901
 31
0.0
  0
LINE
  8
FCALIPER
 62
     8
 10
73.013376
 20
22.216958
 30
0.0
 11
72.886648
 21
22.36335
 31
0.0
  0
LINE
  8
FCALIPER
 62
     8
 10
73.165182
 20
22.236625
 30
0.0
 11
73.038454
 21
22.383017
 31
0.0
  0
LINE
  8
FCALIPER
 62
     8
 10
73.041623
 20
22.598787
 30
0.0
 11
73.005319
 21
22.640724
 31
0.0
  0
LINE
  8
FCALIPER
 62
     8
 10
72.992055
 20
22.022157
 30
0.0
 11
72.955751
 21
22.064095
 31
0.0
  0
LINE
  8
FCALIPER
 62
     8
 10
73.034834
 20
22.410965
 30
0.0
 11
73.096079
 21
22.535881
 31
0.0
  0
LINE
  8
FCALIPER
 62
     8
 10
72.974111
 20
22.403098
 30
0.0
 11
73.059775
 21
22.577818
 31
0.0
  0
ARC
  8
FCALIPER
 62
     8
 10
72.994074
 20
22.200249
 30
0.0
 40
0.025529
 50
333.881713
 51
40.881713
  0
ARC
  8
FCALIPER
 62
     8
 10
73.054796
 20
22.208116
 30
0.0
 40
0.025529
 50
333.881713
 51
40.881713
  0
ARC
  8
FCALIPER
 62
     8
 10
73.085157
 20
22.212049
 30
0.0
 40
0.025529
 50
333.881713
 51
40.881713
  0
ARC
  8
FCALIPER
 62
     8
 10
73.14588
 20
22.219916
 30
0.0
 40
0.025529
 50
333.881713
 51
40.881713
  0
ARC
  8
FCALIPER
 62
     8
 10
73.057756
 20
22.399726
 30
0.0
 40
0.025529
 50
153.881713
 51
220.881713
  0
ARC
  8
FCALIPER
 62
     8
 10
72.997034
 20
22.391859
 30
0.0
 40
0.025529
 50
153.881713
 51
220.881713
  0
ARC
  8
FCALIPER
 62
     8
 10
72.966673
 20
22.387926
 30
0.0
 40
0.025529
 50
153.881713
 51
220.881713
  0
ARC
  8
FCALIPER
 62
     8
 10
72.90595
 20
22.380059
 30
0.0
 40
0.025529
 50
153.881713
 51
220.881713
  0
ARC
  8
FCALIPER
 62
     8
 10
73.172245
 20
22.727138
 30
0.0
 40
0.025529
 50
94.157738
 51
220.881713
  0
ARC
  8
FCALIPER
 62
     8
 10
73.096986
 20
22.769696
 30
0.0
 40
0.025529
 50
94.157738
 51
153.881713
  0
ARC
  8
FCALIPER
 62
     8
 10
73.353551
 20
22.839541
 30
0.0
 40
0.025529
 50
274.157738
 51
40.881713
  0
ARC
  8
FCALIPER
 62
     8
 10
73.42881
 20
22.796982
 30
0.0
 40
0.025529
 50
274.157738
 51
333.881713
  0
ARC
  8
FCALIPER
 62
     8
 10
73.236036
 20
23.053303
 30
0.0
 40
0.025529
 50
153.881713
 51
220.881713
  0
ARC
  8
FCALIPER
 62
     8
 10
73.296758
 20
23.06117
 30
0.0
 40
0.025529
 50
153.881713
 51
220.881713
  0
ARC
  8
FCALIPER
 62
     8
 10
73.086459
 20
22.748225
 30
0.0
 40
0.025529
 50
153.881713
 51
220.881713
  0
ARC
  8
FCALIPER
 62
     8
 10
73.439337
 20
22.818454
 30
0.0
 40
0.025529
 50
333.881713
 51
40.881713
  0
ARC
  8
FCALIPER
 62
     8
 10
72.879585
 20
21.872837
 30
0.0
 40
0.025529
 50
274.157738
 51
40.881713
  0
ARC
  8
FCALIPER
 62
     8
 10
72.954844
 20
21.830279
 30
0.0
 40
0.025529
 50
274.157738
 51
333.881713
  0
ARC
  8
FCALIPER
 62
     8
 10
72.965371
 20
21.85175
 30
0.0
 40
0.025529
 50
333.881713
 51
40.881713
  0
ARC
  8
FCALIPER
 62
     8
 10
72.698279
 20
21.760435
 30
0.0
 40
0.025529
 50
94.157738
 51
220.881713
  0
ARC
  8
FCALIPER
 62
     8
 10
72.62302
 20
21.802993
 30
0.0
 40
0.025529
 50
94.157738
 51
153.881713
  0
ARC
  8
FCALIPER
 62
     8
 10
72.612493
 20
21.781522
 30
0.0
 40
0.025529
 50
153.881713
 51
220.881713
  0
ARC
  8
FCALIPER
 62
     8
 10
72.755072
 20
21.538805
 30
0.0
 40
0.025529
 50
333.881713
 51
40.881713
  0
ARC
  8
FCALIPER
 62
     8
 10
72.815795
 20
21.546672
 30
0.0
 40
0.025529
 50
333.881713
 51
40.881713
  0
LINE
  8
FCALIPER
 62
     8
 10
73.320122
 20
22.517309
 30
0.0
 11
73.152943
 21
22.710429
 31
0.0
  0
ARC
  8
FCALIPER
 10
73.37277
 20
23.000898
 30
0.0
 40
0.765767
 50
348.658393
 51
49.106303
  0
ARC
  8
FCALIPER
 10
73.37277
 20
23.000898
 30
0.0
 40
0.765767
 50
78.658393
 51
139.106303
  0
ARC
  8
FCALIPER
 10
73.37277
 20
23.000898
 30
0.0
 40
0.765767
 50
168.658393
 51
227.182302
  0
ARC
  8
FCALIPER
 10
72.672151
 20
21.571871
 30
0.0
 40
0.585767
 50
353.902869
 51
41.626312
  0
ARC
  8
FCALIPER
 10
72.672151
 20
21.571871
 30
0.0
 40
0.585767
 50
263.902869
 51
313.861827
  0
ARC
  8
FCALIPER
 10
72.672151
 20
21.571871
 30
0.0
 40
0.585767
 50
173.902869
 51
223.861827
  0
ARC
  8
FCALIPER
 10
73.37277
 20
23.000898
 30
0.0
 40
0.765767
 50
260.723464
 51
319.106303
  0
ARC
  8
FCALIPER
 10
72.672151
 20
21.571871
 30
0.0
 40
0.705767
 50
82.049545
 51
45.560843
  0
ARC
  8
FCALIPER
 10
73.37277
 20
23.000898
 30
0.0
 40
0.885767
 50
258.387606
 51
229.497673
  0
CIRCLE
  8
FCALIPER
 62
     8
 10
72.805385
 20
26.169116
 30
0.0
 40
0.376345
  0
LINE
  8
FEND
 10
71.881508
 20
30.695031
 30
0.0
 11
71.51022
 21
30.529723
 31
0.0
  0
LINE
  8
FEND
 10
72.110172
 20
30.181444
 30
0.0
 11
71.738884
 21
30.016136
 31
0.0
  0
LINE
  8
FEND
 10
74.765323
 20
31.363594
 30
0.0
 11
74.394035
 21
31.198286
 31
0.0
  0
LINE
  8
FEND
 10
74.536659
 20
31.877181
 30
0.0
 11
74.165371
 21
31.711873
 31
0.0
  0
CIRCLE
  8
FEND
 10
71.624552
 20
30.27293
 30
0.0
 40
0.281096
  0
LINE
  8
FEND
 62
     8
 10
71.820181
 20
30.231347
 30
0.0
 11
71.686355
 21
30.082718
 31
0.0
  0
LINE
  8
FEND
 62
     8
 10
71.686355
 20
30.082718
 30
0.0
 11
71.490726
 21
30.124301
 31
0.0
  0
LINE
  8
FEND
 62
     8
 10
71.490726
 20
30.124301
 30
0.0
 11
71.428922
 21
30.314512
 31
0.0
  0
LINE
  8
FEND
 62
     8
 10
71.428922
 20
30.314512
 30
0.0
 11
71.562748
 21
30.463141
 31
0.0
  0
LINE
  8
FEND
 62
     8
 10
71.562748
 20
30.463141
 30
0.0
 11
71.758378
 21
30.421559
 31
0.0
  0
LINE
  8
FEND
 62
     8
 10
71.758378
 20
30.421559
 30
0.0
 11
71.820181
 21
30.231347
 31
0.0
  0
LINE
  8
FEND
 62
     8
 10
74.450991
 20
31.620387
 30
0.0
 11
74.550991
 21
31.447182
 31
0.0
  0
LINE
  8
FEND
 62
     8
 10
74.550991
 20
31.793592
 30
0.0
 11
74.450991
 21
31.620387
 31
0.0
  0
LINE
  8
FEND
 62
     8
 10
74.750991
 20
31.793592
 30
0.0
 11
74.550991
 21
31.793592
 31
0.0
  0
LINE
  8
FEND
 62
     8
 10
74.850991
 20
31.620387
 30
0.0
 11
74.750991
 21
31.793592
 31
0.0
  0
LINE
  8
FEND
 62
     8
 10
74.750991
 20
31.447182
 30
0.0
 11
74.850991
 21
31.620387
 31
0.0
  0
LINE
  8
FEND
 62
     8
 10
74.550991
 20
31.447182
 30
0.0
 11
74.750991
 21
31.447182
 31
0.0
  0
CIRCLE
  8
FEND
 10
74.650991
 20
31.620387
 30
0.0
 40
0.281096
  0
LINE
  8
FEND
 62
     8
 10
73.895128
 20
25.87747
 30
0.0
 11
74.381964
 21
25.032809
 31
0.0
  0
LINE
  8
FEND
 62
     8
 10
74.11557
 20
25.975617
 30
0.0
 11
74.589898
 21
25.152656
 31
0.0
  0
LINE
  8
FEND
 10
74.138953
 20
26.204955
 30
0.0
 11
73.611813
 21
27.38893
 31
0.0
  0
LINE
  8
FEND
 10
74.490281
 20
30.401886
 30
0.0
 11
74.348255
 21
30.720882
 31
0.0
  0
LINE
  8
FEND
 10
71.700699
 20
31.101135
 30
0.0
 11
73.984563
 21
32.117976
 31
0.0
  0
LINE
  8
FEND
 10
74.348255
 20
30.720882
 30
0.0
 11
72.495585
 21
29.89602
 31
0.0
  0
LINE
  8
FEND
 10
72.141197
 20
30.111759
 30
0.0
 11
72.495585
 21
29.89602
 31
0.0
  0
LINE
  8
FEND
 10
74.425061
 20
31.1286
 30
0.0
 11
74.348255
 21
30.720882
 31
0.0
  0
LINE
  8
FEND
 10
72.141197
 20
30.111759
 30
0.0
 11
74.425061
 21
31.1286
 31
0.0
  0
ARC
  8
FROTOR
 10
75.773259
 20
22.466575
 30
0.0
 40
0.5
 50
282.173175
 51
297.15548
  0
LINE
  8
FEND
 62
     8
 10
76.322993
 20
21.085108
 30
0.0
 11
76.245303
 21
21.259604
 31
0.0
  0
LINE
  8
FEND
 62
     8
 10
76.180369
 20
20.409717
 30
0.0
 11
75.875317
 21
21.094876
 31
0.0
  0
LINE
  8
FEND
 62
     8
 10
75.932147
 20
21.120178
 30
0.0
 11
75.755531
 21
21.516866
 31
0.0
  0
LINE
  8
FEND
 62
     8
 10
76.261024
 20
21.266604
 30
0.0
 11
76.084407
 21
21.663291
 31
0.0
  0
LINE
  8
FEND
 62
     8
 10
76.084407
 20
21.663291
 30
0.0
 11
75.755531
 21
21.516866
 31
0.0
  0
LINE
  8
FEND
 62
     8
 10
76.207775
 20
20.421919
 30
0.0
 11
75.902723
 21
21.107078
 31
0.0
  0
LINE
  8
FEND
 62
     8
 10
76.550355
 20
20.574445
 30
0.0
 11
76.180369
 21
20.409717
 31
0.0
  0
LINE
  8
FEND
 62
     8
 10
76.261024
 20
21.266604
 30
0.0
 11
75.875317
 21
21.094876
 31
0.0
  0
ARC
  8
FWHEEL
 62
     1
 10
78.028523
 20
19.961851
 30
0.0
 40
8.468449
 50
131.823012
 51
141.034581
  0
LINE
  8
FWHEEL
 62
     1
 10
75.322032
 20
22.933066
 30
0.0
 11
75.136898
 21
23.061962
 31
0.0
  0
LINE
  8
FWHEEL
 62
     1
 10
75.389826
 20
22.776202
 30
0.0
 11
75.118623
 21
22.96502
 31
0.0
  0
LINE
  8
FEND
 62
     8
 10
73.582805
 20
26.899966
 30
0.0
 11
74.015155
 21
26.149837
 31
0.0
  0
LINE
  8
FEND
 62
     8
 10
73.374871
 20
26.780119
 30
0.0
 11
73.794714
 21
26.05169
 31
0.0
  0
LINE
  8
FEND
 62
     8
 10
73.322887
 20
26.750157
 30
0.0
 11
73.634789
 21
26.929927
 31
0.0
  0
LINE
  8
FEND
 62
     8
 10
73.358359
 20
27.409534
 30
0.0
 11
73.634789
 21
26.929927
 31
0.0
  0
LINE
  8
FEND
 62
     8
 10
73.046444
 20
27.229787
 30
0.0
 11
73.322887
 21
26.750157
 31
0.0
  0
ARC
  8
FEND
 62
     8
 10
74.564295
 20
22.47141
 30
0.0
 40
1.12
 50
4.051556
 51
24.0
  0
ARC
  8
FEND
 62
     8
 10
74.564295
 20
22.47141
 30
0.0
 40
0.88
 50
4.051556
 51
24.0
  0
LINE
  8
FEND
 62
     8
 10
75.810344
 20
21.54127
 30
0.0
 11
75.536126
 21
22.157173
 31
0.0
  0
LINE
  8
FEND
 62
     8
 10
76.029594
 20
21.638887
 30
0.0
 11
75.755377
 21
22.25479
 31
0.0
  0
ARC
  8
FEND
 62
     8
 10
76.559297
 20
22.612719
 30
0.0
 40
0.88
 50
184.051556
 51
204.0
  0
ARC
  8
FEND
 62
     8
 10
76.559297
 20
22.612719
 30
0.0
 40
1.12
 50
184.051556
 51
204.0
  0
ARC
  8
FEND
 62
     8
 10
73.619537
 20
24.593371
 30
0.0
 40
0.88
 50
24.0
 51
29.957757
  0
ARC
  8
FEND
 62
     8
 10
73.619537
 20
24.593371
 30
0.0
 40
1.12
 50
24.0
 51
29.957757
  0
LINE
  8
FEND
 62
     8
 10
75.368215
 20
22.829339
 30
0.0
 11
74.423457
 21
24.951299
 31
0.0
  0
LINE
  8
FEND
 62
     8
 10
75.587466
 20
22.926955
 30
0.0
 11
74.642708
 21
25.048916
 31
0.0
  0
LINE
  8
FEND
 62
     8
 10
76.055249
 20
20.764498
 30
0.0
 11
76.027843
 21
20.752296
 31
0.0
  0
ARC
  8
FEND
 10
73.160139
 20
28.284972
 30
0.0
 40
0.125
 50
294.0
 51
24.0
  0
ARC
  8
FEND
 10
73.614721
 20
27.263964
 30
0.0
 40
0.125
 50
24.0
 51
114.0
  0
LINE
  8
FEND
 10
73.251061
 20
28.199192
 30
0.0
 11
72.495585
 21
29.89602
 31
0.0
  0
LINE
  8
FEND
 10
73.41472
 20
27.311747
 30
0.0
 11
73.563879
 21
27.378157
 31
0.0
  0
ARC
  8
FEND
 10
73.031582
 20
27.616034
 30
0.0
 40
0.433816
 50
242.916977
 51
275.44334
  0
ARC
  8
FEND
 10
73.031582
 20
27.616034
 30
0.0
 40
0.433816
 50
182.916977
 51
237.083023
  0
ARC
  8
FEND
 10
73.031582
 20
27.616034
 30
0.0
 40
0.433816
 50
122.916977
 51
177.083023
  0
LINE
  8
FEND
 10
72.585582
 20
27.616034
 30
0.0
 11
72.808582
 21
27.229787
 31
0.0
  0
LINE
  8
FEND
 10
72.808582
 20
28.002281
 30
0.0
 11
72.585582
 21
27.616034
 31
0.0
  0
LINE
  8
FEND
 10
73.254582
 20
28.002281
 30
0.0
 11
72.808582
 21
28.002281
 31
0.0
  0
LINE
  8
FEND
 10
73.477582
 20
27.616034
 30
0.0
 11
73.254582
 21
28.002281
 31
0.0
  0
LINE
  8
FEND
 10
73.254582
 20
27.229787
 30
0.0
 11
73.477582
 21
27.616034
 31
0.0
  0
LINE
  8
FEND
 10
72.808582
 20
27.229787
 30
0.0
 11
73.254582
 21
27.229787
 31
0.0
  0
LINE
  8
FEND
 10
72.855133
 20
28.012345
 30
0.0
 11
73.210981
 21
28.170779
 31
0.0
  0
ARC
  8
FEND
 10
73.031582
 20
27.616034
 30
0.0
 40
0.433816
 50
114.0
 51
117.083023
  0
CIRCLE
  8
FEND
 62
     8
 10
73.031582
 20
27.616034
 30
0.0
 40
0.096979
  0
ARC
  8
FEND
 10
76.437186
 20
21.13595
 30
0.0
 40
0.125
 50
114.0
 51
204.0
  0
ARC
  8
FEND
 10
77.594117
 20
21.924708
 30
0.0
 40
0.125
 50
294.0
 51
24.0
  0
ARC
  8
FEND
 10
78.141797
 20
20.440969
 30
0.0
 40
0.125
 50
24.0
 51
114.0
  0
LINE
  8
FEND
 10
76.351821
 20
21.234772
 30
0.0
 11
74.2203
 21
26.022246
 31
0.0
  0
LINE
  8
FEND
 10
77.644959
 20
21.810514
 30
0.0
 11
76.386344
 21
21.250143
 31
0.0
  0
LINE
  8
FEND
 10
78.090955
 20
20.555163
 30
0.0
 11
76.698195
 21
19.935066
 31
0.0
  0
ARC
  8
FEND
 10
78.727851
 20
20.991847
 30
0.0
 40
0.125
 50
24.0
 51
114.0
  0
LINE
  8
FEND
 10
78.677009
 20
21.10604
 30
0.0
 11
78.636991
 21
21.088223
 31
0.0
  0
ARC
  8
FEND
 10
78.964984
 20
20.459238
 30
0.0
 40
0.125
 50
294.0
 51
24.0
  0
LINE
  8
FEND
 10
79.079177
 20
20.51008
 30
0.0
 11
78.842044
 21
21.042689
 31
0.0
  0
ARC
  8
FEND
 62
     8
 10
79.25849
 20
19.108308
 30
0.0
 40
0.06
 50
204.0
 51
294.0
  0
ARC
  8
FEND
 62
     8
 10
79.377251
 20
19.161184
 30
0.0
 40
0.06
 50
294.0
 51
24.0
  0
ARC
  8
FEND
 10
77.723613
 20
19.769715
 30
0.0
 40
0.125
 50
204.0
 51
294.0
  0
LINE
  8
FEND
 10
78.422362
 20
19.943989
 30
0.0
 11
78.550731
 21
20.001142
 31
0.0
  0
LINE
  8
FEND
 10
78.406546
 20
20.073776
 30
0.0
 11
79.015826
 21
20.345045
 31
0.0
  0
LINE
  8
FEND
 62
     8
 10
79.069772
 20
19.999308
 30
0.0
 11
78.931521
 21
20.309825
 31
0.0
  0
LINE
  8
FEND
 62
     8
 10
78.78984
 20
20.013398
 30
0.0
 11
78.703995
 21
20.206209
 31
0.0
  0
LINE
  8
FEND
 62
     8
 10
79.203677
 20
19.083904
 30
0.0
 11
79.165236
 21
19.170244
 31
0.0
  0
LINE
  8
FEND
 62
     8
 10
79.432064
 20
19.185588
 30
0.0
 11
79.393622
 21
19.271928
 31
0.0
  0
ARC
  8
FEND
 10
78.652415
 20
19.772756
 30
0.0
 40
0.25
 50
78.606258
 51
114.0
  0
LINE
  8
FEND
 10
78.975808
 20
20.327228
 30
0.0
 11
76.24025
 21
26.47139
 31
0.0
  0
LINE
  8
FEND
 10
77.583712
 20
19.776613
 30
0.0
 11
77.60942
 21
19.718873
 31
0.0
  0
LINE
  8
FEND
 62
     8
 10
79.282894
 20
19.053496
 30
0.0
 11
79.401655
 21
19.106371
 31
0.0
  0
ARC
  8
FEND
 10
78.167281
 20
19.310384
 30
0.0
 40
0.25
 50
255.252065
 51
294.0
  0
LINE
  8
FEND
 10
78.701803
 20
20.017829
 30
0.0
 11
79.294589
 21
19.987992
 31
0.0
  0
LINE
  8
FEND
 10
77.774455
 20
19.655522
 30
0.0
 11
77.778267
 21
19.657219
 31
0.0
  0
LINE
  8
FEND
 10
77.186908
 20
19.30994
 30
0.0
 11
78.103639
 21
19.06862
 31
0.0
  0
LINE
  8
FEND
 10
78.268965
 20
19.081998
 30
0.0
 11
79.462007
 21
19.611965
 31
0.0
  0
CIRCLE
  8
FEND
 10
77.273384
 20
19.638446
 30
0.0
 40
0.240052
  0
ARC
  8
FEND
 10
77.273384
 20
19.638446
 30
0.0
 40
0.339697
 50
24.0
 51
255.252065
  0
LINE
  8
FEND
 10
76.584097
 20
20.498659
 30
0.0
 11
76.322993
 21
21.085108
 31
0.0
  0
CIRCLE
  8
FEND
 10
78.028523
 20
19.961851
 30
0.0
 40
0.394244
  0
LINE
  8
FEND
 10
76.983619
 20
19.81573
 30
0.0
 11
76.892058
 21
20.021379
 31
0.0
  0
LINE
  8
FEND
 10
79.462007
 20
19.611965
 30
0.0
 11
79.294589
 21
19.987992
 31
0.0
  0
ARC
  8
FWHEEL
 62
     8
 10
78.028523
 20
19.961851
 30
0.0
 40
10.064034
 50
119.782638
 51
136.591992
  0
LINE
  8
FROTOR
 62
     8
 10
82.442466
 20
22.002468
 30
0.0
 11
83.040189
 21
23.696245
 31
0.0
  0
LINE
  8
FROTOR
 62
     8
 10
82.387546
 20
22.117291
 30
0.0
 11
82.97505
 21
23.782108
 31
0.0
  0
LINE
  8
FROTOR
 62
     8
 10
73.6695
 20
17.80641
 30
0.0
 11
73.081996
 21
16.141593
 31
0.0
  0
LINE
  8
FROTOR
 62
     8
 10
73.61458
 20
17.921233
 30
0.0
 11
73.016857
 21
16.227457
 31
0.0
  0
LINE
  8
FROTOR
 62
     8
 10
77.246917
 20
18.707128
 30
0.0
 11
77.340742
 21
18.522987
 31
0.0
  0
LINE
  8
FROTOR
 62
     8
 10
77.340742
 20
18.522987
 30
0.0
 11
77.547125
 21
18.512171
 31
0.0
  0
LINE
  8
FROTOR
 62
     8
 10
77.547125
 20
18.512171
 30
0.0
 11
77.659684
 21
18.685496
 31
0.0
  0
LINE
  8
FROTOR
 62
     8
 10
77.659684
 20
18.685496
 30
0.0
 11
77.565859
 21
18.869637
 31
0.0
  0
LINE
  8
FROTOR
 62
     8
 10
77.565859
 20
18.869637
 30
0.0
 11
77.359476
 21
18.880454
 31
0.0
  0
LINE
  8
FROTOR
 62
     8
 10
77.359476
 20
18.880454
 30
0.0
 11
77.246917
 21
18.707128
 31
0.0
  0
LINE
  8
FROTOR
 62
     8
 10
76.551098
 20
20.01138
 30
0.0
 11
76.43854
 21
19.838055
 31
0.0
  0
LINE
  8
FROTOR
 62
     8
 10
76.43854
 20
19.838055
 30
0.0
 11
76.532364
 21
19.653914
 31
0.0
  0
LINE
  8
FROTOR
 62
     8
 10
76.532364
 20
19.653914
 30
0.0
 11
76.738748
 21
19.643097
 31
0.0
  0
LINE
  8
FROTOR
 62
     8
 10
76.738748
 20
19.643097
 30
0.0
 11
76.851306
 21
19.816423
 31
0.0
  0
LINE
  8
FROTOR
 62
     8
 10
76.851306
 20
19.816423
 30
0.0
 11
76.773721
 21
19.968692
 31
0.0
  0
LINE
  8
FROTOR
 62
     8
 10
76.666921
 20
20.00531
 30
0.0
 11
76.551098
 21
20.01138
 31
0.0
  0
LINE
  8
FROTOR
 62
     8
 10
78.810129
 20
21.216573
 30
0.0
 11
78.716304
 21
21.400715
 31
0.0
  0
LINE
  8
FROTOR
 62
     8
 10
78.716304
 20
21.400715
 30
0.0
 11
78.509921
 21
21.411531
 31
0.0
  0
LINE
  8
FROTOR
 62
     8
 10
78.509921
 20
21.411531
 30
0.0
 11
78.499909
 21
21.396114
 31
0.0
  0
LINE
  8
FROTOR
 62
     8
 10
78.744631
 20
21.115716
 30
0.0
 11
78.810129
 21
21.216573
 31
0.0
  0
LINE
  8
FROTOR
 62
     8
 10
79.505948
 20
19.912322
 30
0.0
 11
79.618506
 21
20.085647
 31
0.0
  0
LINE
  8
FROTOR
 62
     8
 10
79.618506
 20
20.085647
 30
0.0
 11
79.524682
 21
20.269788
 31
0.0
  0
LINE
  8
FROTOR
 62
     8
 10
79.524682
 20
20.269788
 30
0.0
 11
79.318298
 21
20.280604
 31
0.0
  0
LINE
  8
FROTOR
 62
     8
 10
79.318298
 20
20.280604
 30
0.0
 11
79.205739
 21
20.107279
 31
0.0
  0
LINE
  8
FROTOR
 62
     8
 10
79.205739
 20
20.107279
 30
0.0
 11
79.26578
 21
19.989442
 31
0.0
  0
LINE
  8
FROTOR
 62
     8
 10
79.324035
 20
19.921855
 30
0.0
 11
79.505948
 21
19.912322
 31
0.0
  0
LINE
  8
FROTOR
 62
     8
 10
78.630517
 20
18.84174
 30
0.0
 11
78.724342
 21
18.657599
 31
0.0
  0
LINE
  8
FROTOR
 62
     8
 10
78.743076
 20
19.015066
 30
0.0
 11
78.630517
 21
18.84174
 31
0.0
  0
LINE
  8
FROTOR
 62
     8
 10
78.949459
 20
19.004249
 30
0.0
 11
78.743076
 21
19.015066
 31
0.0
  0
LINE
  8
FROTOR
 62
     8
 10
79.043284
 20
18.820108
 30
0.0
 11
78.949459
 21
19.004249
 31
0.0
  0
LINE
  8
FROTOR
 62
     8
 10
78.930725
 20
18.646783
 30
0.0
 11
79.043284
 21
18.820108
 31
0.0
  0
LINE
  8
FROTOR
 62
     8
 10
78.724342
 20
18.657599
 30
0.0
 11
78.930725
 21
18.646783
 31
0.0
  0
LINE
  8
FWHEEL
 62
     1
 10
76.03132
 20
17.435887
 30
0.0
 11
75.93697
 21
15.635591
 31
0.0
  0
LINE
  8
FWHEEL
 62
     1
 10
76.12441
 20
17.492505
 30
0.0
 11
76.026979
 21
15.633403
 31
0.0
  0
LINE
  8
FWHEEL
 62
     1
 10
80.054431
 20
16.425711
 30
0.0
 11
80.41091
 21
16.194211
 31
0.0
  0
LINE
  8
FWHEEL
 62
     1
 10
74.616958
 20
20.313643
 30
0.0
 11
73.84655
 21
19.921101
 31
0.0
  0
LINE
  8
FWHEEL
 62
     1
 10
74.339895
 20
19.115789
 30
0.0
 11
73.718513
 21
18.824005
 31
0.0
  0
LINE
  8
FWHEEL
 62
     1
 10
80.025726
 20
22.487815
 30
0.0
 11
80.120076
 21
24.288111
 31
0.0
  0
LINE
  8
FWHEEL
 62
     1
 10
81.91225
 20
20.800098
 30
0.0
 11
82.361019
 21
21.010827
 31
0.0
  0
LINE
  8
FWHEEL
 62
     1
 10
81.71715
 20
20.807913
 30
0.0
 11
82.338532
 21
21.099697
 31
0.0
  0
LINE
  8
FWHEEL
 62
     1
 10
80.826636
 20
19.297489
 30
0.0
 11
82.210496
 21
20.002601
 31
0.0
  0
LINE
  8
FWHEEL
 62
     1
 10
80.847768
 20
19.409266
 30
0.0
 11
81.813981
 21
19.901576
 31
0.0
  0
LINE
  8
FWHEEL
 62
     1
 10
80.20048
 20
25.82232
 30
0.0
 11
80.285869
 21
27.451628
 31
0.0
  0
LINE
  8
FWHEEL
 62
     1
 10
79.351334
 20
26.070261
 30
0.0
 11
79.492272
 21
27.732433
 31
0.0
  0
LINE
  8
FWHEEL
 62
     1
 10
72.698663
 20
25.643602
 30
0.0
 11
72.670858
 21
25.661658
 31
0.0
  0
LINE
  8
FWHEEL
 62
     1
 10
72.951938
 20
25.371811
 30
0.0
 11
72.492661
 21
25.670068
 31
0.0
  0
LINE
  8
FWHEEL
 62
     1
 10
72.60815
 20
24.712873
 30
0.0
 11
72.030876
 21
25.114785
 31
0.0
  0
LINE
  8
FWHEEL
 62
     1
 10
72.717416
 20
24.746464
 30
0.0
 11
72.120033
 21
25.162377
 31
0.0
  0
LINE
  8
FWHEEL
 62
     1
 10
71.867229
 20
18.912586
 30
0.0
 11
70.413512
 21
18.171881
 31
0.0
  0
LINE
  8
FWHEEL
 62
     1
 10
72.077079
 20
18.053234
 30
0.0
 11
70.567127
 21
17.344203
 31
0.0
  0
LINE
  8
FWHEEL
 62
     1
 10
75.856566
 20
14.101381
 30
0.0
 11
75.771177
 21
12.472073
 31
0.0
  0
LINE
  8
FWHEEL
 62
     1
 10
75.945011
 20
14.069358
 30
0.0
 11
75.852993
 21
12.313545
 31
0.0
  0
LINE
  8
FWHEEL
 62
     1
 10
76.617074
 20
13.873312
 30
0.0
 11
76.478981
 21
12.244685
 31
0.0
  0
LINE
  8
FWHEEL
 62
     1
 10
76.705712
 20
13.853441
 30
0.0
 11
76.564774
 21
12.191269
 31
0.0
  0
LINE
  8
FWHEEL
 62
     1
 10
82.01786
 20
15.150646
 30
0.0
 11
83.386188
 21
14.262043
 31
0.0
  0
LINE
  8
FWHEEL
 62
     1
 10
82.657155
 20
15.762058
 30
0.0
 11
84.02617
 21
14.808916
 31
0.0
  0
LINE
  8
FWHEEL
 62
     1
 10
84.173328
 20
21.103723
 30
0.0
 11
85.739915
 21
21.901939
 31
0.0
  0
LINE
  8
FWHEEL
 62
     1
 10
84.189817
 20
21.011115
 30
0.0
 11
85.643533
 21
21.751821
 31
0.0
  0
LINE
  8
FWHEEL
 62
     1
 10
83.979967
 20
21.870468
 30
0.0
 11
85.489919
 21
22.579499
 31
0.0
  0
LINE
  8
FWHEEL
 62
     1
 10
84.007077
 20
21.783769
 30
0.0
 11
85.486556
 21
22.478491
 31
0.0
  0
ARC
  8
FROTOR
 10
78.028523
 20
19.961851
 30
0.0
 40
1.652129
 50
159.360536
 51
163.274901
  0
ARC
  8
FROTOR
 10
78.028523
 20
19.961851
 30
0.0
 40
1.988176
 50
163.251617
 51
169.086902
  0
LINE
  8
FROTOR
 10
74.96445
 20
16.724208
 30
0.0
 11
76.065837
 21
17.458913
 31
0.0
  0
LINE
  8
FROTOR
 10
76.756679
 20
15.689464
 30
0.0
 11
76.842258
 21
17.010646
 31
0.0
  0
ARC
  8
FROTOR
 10
78.028523
 20
19.961851
 30
0.0
 40
2.112908
 50
220.719402
 51
223.280598
  0
LINE
  8
FROTOR
 10
75.172361
 20
17.283626
 30
0.0
 11
76.447048
 21
18.133934
 31
0.0
  0
LINE
  8
FROTOR
 10
75.06642
 20
17.401286
 30
0.0
 11
76.045311
 21
18.580109
 31
0.0
  0
ARC
  8
FROTOR
 10
76.343304
 20
17.042965
 30
0.0
 40
0.5
 50
356.293861
 51
123.706139
  0
ARC
  8
FROTOR
 10
76.308314
 20
18.341908
 30
0.0
 40
0.25
 50
303.706139
 51
43.280598
  0
ARC
  8
FROTOR
 10
76.237643
 20
18.420396
 30
0.0
 40
0.25
 50
40.719402
 51
140.293861
  0
ARC
  8
FROTOR
 10
75.127966
 20
17.350178
 30
0.0
 40
0.08
 50
140.293861
 51
303.706139
  0
LINE
  8
FROTOR
 10
73.646597
 20
19.14356
 30
0.0
 11
74.969486
 21
19.090569
 31
0.0
  0
LINE
  8
FROTOR
 10
74.488334
 20
17.252989
 30
0.0
 11
75.334139
 21
18.271545
 31
0.0
  0
ARC
  8
FROTOR
 10
78.028523
 20
19.961851
 30
0.0
 40
2.112908
 50
185.858092
 51
187.280598
  0
LINE
  8
FROTOR
 10
74.143619
 20
19.473932
 30
0.0
 11
75.67466
 21
19.412603
 31
0.0
  0
LINE
  8
FROTOR
 10
74.127069
 20
19.631391
 30
0.0
 11
75.035264
 21
19.862783
 31
0.0
  0
ARC
  8
FROTOR
 10
74.949474
 20
18.59097
 30
0.0
 40
0.5
 50
320.293861
 51
87.706139
  0
ARC
  8
FROTOR
 10
75.684666
 20
19.662403
 30
0.0
 40
0.25
 50
267.706139
 51
7.280598
  0
ARC
  8
FROTOR
 10
74.146821
 20
19.553867
 30
0.0
 40
0.08
 50
104.293861
 51
267.706139
  0
LINE
  8
FROTOR
 10
73.57222
 20
19.851206
 30
0.0
 11
74.695434
 21
20.137382
 31
0.0
  0
LINE
  8
FROTOR
 10
75.314782
 20
21.285264
 30
0.0
 11
75.801368
 21
20.901066
 31
0.0
  0
LINE
  8
FROTOR
 10
75.07184
 20
21.83092
 30
0.0
 11
75.805211
 21
21.538985
 31
0.0
  0
ARC
  8
FROTOR
 10
75.956292
 20
21.097276
 30
0.0
 40
0.25
 50
231.706139
 51
276.554146
  0
LINE
  8
FROTOR
 10
74.982549
 20
22.243176
 30
0.0
 11
75.588336
 21
22.002028
 31
0.0
  0
ARC
  8
FROTOR
 10
75.773259
 20
22.466575
 30
0.0
 40
0.5
 50
248.293861
 51
250.767986
  0
LINE
  8
FROTOR
 10
78.604372
 20
24.382176
 30
0.0
 11
78.145179
 21
23.140408
 31
0.0
  0
ARC
  8
FROTOR
 10
78.028523
 20
19.961851
 30
0.0
 40
2.112908
 50
76.719402
 51
79.280598
  0
LINE
  8
FROTOR
 10
78.764986
 20
23.80739
 30
0.0
 11
78.233541
 21
22.370234
 31
0.0
  0
LINE
  8
FROTOR
 10
78.919852
 20
23.774472
 30
0.0
 11
78.820808
 21
22.245407
 31
0.0
  0
ARC
  8
FROTOR
 10
77.676216
 20
23.313826
 30
0.0
 40
0.5
 50
290.84452
 51
339.706139
  0
ARC
  8
FROTOR
 10
78.468022
 20
22.283525
 30
0.0
 40
0.25
 50
159.706139
 51
259.280598
  0
ARC
  8
FROTOR
 10
78.57133
 20
22.261567
 30
0.0
 40
0.25
 50
256.719402
 51
356.293861
  0
ARC
  8
FROTOR
 10
78.84002
 20
23.779643
 30
0.0
 40
0.08
 50
356.293861
 51
159.706139
  0
LINE
  8
FROTOR
 10
81.092596
 20
23.199493
 30
0.0
 11
79.991209
 21
22.464789
 31
0.0
  0
LINE
  8
FROTOR
 10
79.300367
 20
24.234237
 30
0.0
 11
79.214788
 21
22.913056
 31
0.0
  0
ARC
  8
FROTOR
 10
78.028523
 20
19.961851
 30
0.0
 40
2.112908
 50
40.719402
 51
43.280598
  0
LINE
  8
FROTOR
 10
80.884685
 20
22.640075
 30
0.0
 11
79.609998
 21
21.789768
 31
0.0
  0
LINE
  8
FROTOR
 10
80.990626
 20
22.522416
 30
0.0
 11
80.011735
 21
21.343593
 31
0.0
  0
ARC
  8
FROTOR
 10
79.713742
 20
22.880736
 30
0.0
 40
0.5
 50
176.293861
 51
303.706139
  0
ARC
  8
FROTOR
 10
79.748731
 20
21.581794
 30
0.0
 40
0.25
 50
123.706139
 51
223.280598
  0
ARC
  8
FROTOR
 10
79.819402
 20
21.503306
 30
0.0
 40
0.25
 50
220.719402
 51
320.293861
  0
ARC
  8
FROTOR
 10
80.92908
 20
22.573524
 30
0.0
 40
0.08
 50
320.293861
 51
123.706139
  0
LINE
  8
FROTOR
 10
82.410449
 20
20.780142
 30
0.0
 11
81.08756
 21
20.833132
 31
0.0
  0
LINE
  8
FROTOR
 10
81.568712
 20
22.670713
 30
0.0
 11
80.722906
 21
21.652157
 31
0.0
  0
ARC
  8
FROTOR
 10
78.028523
 20
19.961851
 30
0.0
 40
2.112908
 50
4.719402
 51
7.280598
  0
LINE
  8
FROTOR
 10
81.913427
 20
20.44977
 30
0.0
 11
80.382386
 21
20.511099
 31
0.0
  0
LINE
  8
FROTOR
 10
81.929977
 20
20.292311
 30
0.0
 11
80.445143
 21
19.914001
 31
0.0
  0
ARC
  8
FROTOR
 10
81.107572
 20
21.332732
 30
0.0
 40
0.5
 50
140.293861
 51
267.706139
  0
ARC
  8
FROTOR
 10
80.372379
 20
20.261299
 30
0.0
 40
0.25
 50
87.706139
 51
187.280598
  0
ARC
  8
FROTOR
 10
80.383419
 20
20.156261
 30
0.0
 40
0.25
 50
184.719402
 51
284.293861
  0
ARC
  8
FROTOR
 10
81.910225
 20
20.369834
 30
0.0
 40
0.08
 50
284.293861
 51
87.706139
  0
LINE
  8
FROTOR
 10
82.054555
 20
18.048231
 30
0.0
 11
81.015462
 21
18.868676
 31
0.0
  0
LINE
  8
FROTOR
 10
82.484825
 20
20.072495
 30
0.0
 11
81.201862
 21
19.745618
 31
0.0
  0
ARC
  8
FROTOR
 10
78.028523
 20
19.961851
 30
0.0
 40
2.112908
 50
328.719402
 51
331.280598
  0
LINE
  8
FROTOR
 10
81.458268
 20
18.073096
 30
0.0
 11
80.255678
 21
19.022636
 31
0.0
  0
LINE
  8
FROTOR
 10
81.379105
 20
17.935981
 30
0.0
 11
79.955484
 21
18.502686
 31
0.0
  0
ARC
  8
FROTOR
 10
81.325309
 20
19.261097
 30
0.0
 40
0.5
 50
104.293861
 51
231.706139
  0
ARC
  8
FROTOR
 10
80.100754
 20
18.826425
 30
0.0
 40
0.25
 50
51.706139
 51
151.280598
  0
ARC
  8
FROTOR
 10
80.047946
 20
18.734959
 30
0.0
 40
0.25
 50
148.719402
 51
248.293861
  0
ARC
  8
FROTOR
 10
81.408693
 20
18.010309
 30
0.0
 40
0.08
 50
248.293861
 51
51.706139
  0
LINE
  8
FROTOR
 10
80.160853
 20
16.047257
 30
0.0
 11
79.802455
 21
17.321775
 31
0.0
  0
LINE
  8
FROTOR
 10
81.698783
 20
17.432015
 30
0.0
 11
80.46871
 21
17.921673
 31
0.0
  0
ARC
  8
FROTOR
 10
78.028523
 20
19.961851
 30
0.0
 40
2.112908
 50
292.719402
 51
295.280598
  0
LINE
  8
FROTOR
 10
79.693063
 20
16.417863
 30
0.0
 11
79.278272
 21
17.892921
 31
0.0
  0
LINE
  8
FROTOR
 10
79.548425
 20
16.353465
 30
0.0
 11
78.729792
 21
17.648722
 31
0.0
  0
ARC
  8
FROTOR
 10
80.283787
 20
17.457127
 30
0.0
 40
0.5
 50
68.293861
 51
195.706139
  0
ARC
  8
FROTOR
 10
79.037607
 20
17.825246
 30
0.0
 40
0.25
 50
15.706139
 51
115.280598
  0
ARC
  8
FROTOR
 10
78.941121
 20
17.782288
 30
0.0
 40
0.25
 50
112.719402
 51
212.293861
  0
ARC
  8
FROTOR
 10
79.61605
 20
16.396206
 30
0.0
 40
0.08
 50
212.293861
 51
15.706139
  0
ARC
  8
FROTOR
 10
77.217026
 20
16.144059
 30
0.0
 40
0.08
 50
176.293861
 51
339.706139
  0
ARC
  8
FROTOR
 10
77.485715
 20
17.662135
 30
0.0
 40
0.25
 50
76.719402
 51
176.293861
  0
ARC
  8
FROTOR
 10
77.589024
 20
17.640176
 30
0.0
 40
0.25
 50
339.706139
 51
79.280598
  0
ARC
  8
FROTOR
 10
78.38083
 20
16.609876
 30
0.0
 40
0.5
 50
32.293861
 51
159.706139
  0
LINE
  8
FROTOR
 10
79.510825
 20
15.757846
 30
0.0
 11
78.803489
 21
16.877007
 31
0.0
  0
LINE
  8
FROTOR
 10
77.452674
 20
15.541526
 30
0.0
 11
77.911867
 21
16.783293
 31
0.0
  0
LINE
  8
FROTOR
 10
77.137193
 20
16.14923
 30
0.0
 11
77.236238
 21
17.678295
 31
0.0
  0
LINE
  8
FROTOR
 10
77.29206
 20
16.116312
 30
0.0
 11
77.823505
 21
17.553468
 31
0.0
  0
ARC
  8
FROTOR
 10
78.028523
 20
19.961851
 30
0.0
 40
2.112908
 50
256.719402
 51
259.280598
  0
ARC
  8
FROTOR
 10
75.987702
 20
15.870167
 30
0.0
 40
0.24
 50
243.491227
 51
336.5
  0
ARC
  8
FROTOR
 10
78.028523
 20
19.961851
 30
0.0
 40
4.812398
 50
236.508773
 51
243.491227
  0
ARC
  8
FROTOR
 10
75.505431
 20
16.148607
 30
0.0
 40
0.24
 50
143.5
 51
236.508773
  0
LINE
  8
FROTOR
 10
75.376996
 20
16.378517
 30
0.0
 11
75.136007
 21
16.05284
 31
0.0
  0
LINE
  8
FROTOR
 10
74.187659
 20
17.699409
 30
0.0
 11
73.838576
 21
17.493784
 31
0.0
  0
ARC
  8
FROTOR
 10
78.028523
 20
19.961851
 30
0.0
 40
4.457676
 50
210.5
 51
233.5
  0
ARC
  8
FROTOR
 10
73.972433
 20
17.851174
 30
0.0
 40
0.24
 50
207.491227
 51
300.5
  0
ARC
  8
FROTOR
 10
78.028523
 20
19.961851
 30
0.0
 40
4.812398
 50
200.508773
 51
207.491227
  0
ARC
  8
FROTOR
 10
73.74593
 20
18.359908
 30
0.0
 40
0.24
 50
107.5
 51
200.508773
  0
LINE
  8
FROTOR
 10
73.777162
 20
18.621402
 30
0.0
 11
73.39077
 21
18.499573
 31
0.0
  0
LINE
  8
FROTOR
 10
73.591369
 20
20.3891
 30
0.0
 11
73.188091
 21
20.427931
 31
0.0
  0
ARC
  8
FROTOR
 10
78.028523
 20
19.961851
 30
0.0
 40
4.457676
 50
174.5
 51
197.5
  0
ARC
  8
FROTOR
 10
73.506453
 20
20.638387
 30
0.0
 40
0.24
 50
171.491227
 51
264.5
  0
ARC
  8
FROTOR
 10
78.028523
 20
19.961851
 30
0.0
 40
4.812398
 50
164.508773
 51
171.491227
  0
ARC
  8
FROTOR
 10
73.622234
 20
21.183096
 30
0.0
 40
0.24
 50
71.5
 51
164.508773
  0
LINE
  8
FROTOR
 10
73.801203
 20
21.376292
 30
0.0
 11
73.458289
 21
21.49103
 31
0.0
  0
ARC
  8
FROTOR
 10
78.028523
 20
19.961851
 30
0.0
 40
4.457676
 50
154.80749
 51
161.5
  0
ARC
  8
FROTOR
 10
77.27455
 20
24.471656
 30
0.0
 40
0.24
 50
99.491227
 51
147.22843
  0
ARC
  8
FROTOR
 10
78.028523
 20
19.961851
 30
0.0
 40
4.812398
 50
92.508773
 51
99.491227
  0
ARC
  8
FROTOR
 10
77.828378
 20
24.529866
 30
0.0
 40
0.24
 50
359.5
 51
92.508773
  0
LINE
  8
FROTOR
 10
78.067423
 20
24.419357
 30
0.0
 11
78.070958
 21
24.824485
 31
0.0
  0
LINE
  8
FROTOR
 10
79.806017
 20
24.049807
 30
0.0
 11
79.967567
 21
24.421348
 31
0.0
  0
ARC
  8
FROTOR
 10
78.028523
 20
19.961851
 30
0.0
 40
4.457676
 50
66.5
 51
89.5
  0
ARC
  8
FROTOR
 10
80.069343
 20
24.053534
 30
0.0
 40
0.24
 50
63.491227
 51
156.5
  0
ARC
  8
FROTOR
 10
78.028523
 20
19.961851
 30
0.0
 40
4.812398
 50
56.508773
 51
63.491227
  0
ARC
  8
FROTOR
 10
80.551614
 20
23.775095
 30
0.0
 40
0.24
 50
323.5
 51
56.508773
  0
LINE
  8
FROTOR
 10
80.68005
 20
23.545184
 30
0.0
 11
80.921038
 21
23.870861
 31
0.0
  0
LINE
  8
FROTOR
 10
81.869386
 20
22.224292
 30
0.0
 11
82.21847
 21
22.429918
 31
0.0
  0
ARC
  8
FROTOR
 10
78.028523
 20
19.961851
 30
0.0
 40
4.457676
 50
30.5
 51
53.5
  0
ARC
  8
FROTOR
 10
82.084612
 20
22.072528
 30
0.0
 40
0.24
 50
27.491227
 51
120.5
  0
ARC
  8
FROTOR
 10
78.028523
 20
19.961851
 30
0.0
 40
4.812398
 50
20.508773
 51
27.491227
  0
ARC
  8
FROTOR
 10
82.311115
 20
21.563794
 30
0.0
 40
0.24
 50
287.5
 51
20.508773
  0
LINE
  8
FROTOR
 10
82.279884
 20
21.3023
 30
0.0
 11
82.666276
 21
21.424129
 31
0.0
  0
LINE
  8
FROTOR
 10
82.465677
 20
19.534602
 30
0.0
 11
82.868954
 21
19.49577
 31
0.0
  0
ARC
  8
FROTOR
 10
78.028523
 20
19.961851
 30
0.0
 40
4.457676
 50
354.5
 51
17.5
  0
ARC
  8
FROTOR
 10
82.550593
 20
19.285315
 30
0.0
 40
0.24
 50
351.491227
 51
84.5
  0
ARC
  8
FROTOR
 10
78.028523
 20
19.961851
 30
0.0
 40
4.812398
 50
344.508773
 51
351.491227
  0
ARC
  8
FROTOR
 10
82.434812
 20
18.740605
 30
0.0
 40
0.24
 50
251.5
 51
344.508773
  0
LINE
  8
FROTOR
 10
82.255842
 20
18.54741
 30
0.0
 11
82.640049
 21
18.418856
 31
0.0
  0
LINE
  8
FROTOR
 10
81.367125
 20
17.008105
 30
0.0
 11
81.670559
 21
16.73965
 31
0.0
  0
ARC
  8
FROTOR
 10
78.028523
 20
19.961851
 30
0.0
 40
4.457676
 50
318.5
 51
341.5
  0
ARC
  8
FROTOR
 10
81.289297
 20
16.756516
 30
0.0
 40
0.24
 50
315.491227
 51
48.5
  0
ARC
  8
FROTOR
 10
78.028523
 20
19.961851
 30
0.0
 40
4.812398
 50
308.508773
 51
315.491227
  0
ARC
  8
FROTOR
 10
80.875455
 20
16.383891
 30
0.0
 40
0.24
 50
215.5
 51
308.508773
  0
LINE
  8
FROTOR
 10
80.617109
 20
16.332788
 30
0.0
 11
80.852376
 21
16.002954
 31
0.0
  0
LINE
  8
FROTOR
 10
78.993341
 20
15.60984
 30
0.0
 11
79.08103
 21
15.2143
 31
0.0
  0
ARC
  8
FROTOR
 10
78.028523
 20
19.961851
 30
0.0
 40
4.457676
 50
282.5
 51
305.5
  0
ARC
  8
FROTOR
 10
78.228668
 20
15.393836
 30
0.0
 40
0.24
 50
179.5
 51
272.508773
  0
ARC
  8
FROTOR
 10
78.782496
 20
15.452045
 30
0.0
 40
0.24
 50
279.491227
 51
12.5
  0
ARC
  8
FROTOR
 10
78.028523
 20
19.961851
 30
0.0
 40
4.812398
 50
272.508773
 51
279.491227
  0
ARC
  8
FROTOR
 10
78.028523
 20
19.961851
 30
0.0
 40
4.457676
 50
246.5
 51
269.5
  0
CIRCLE
  8
FROTOR
 62
    10
 10
76.35985
 20
15.614809
 30
0.0
 40
0.150749
  0
CIRCLE
  8
FROTOR
 62
    10
 10
75.098211
 20
16.343216
 30
0.0
 40
0.150749
  0
CIRCLE
  8
FROTOR
 62
    10
 10
74.123411
 20
17.425841
 30
0.0
 40
0.150749
  0
CIRCLE
  8
FROTOR
 62
    10
 10
73.53087
 20
18.756709
 30
0.0
 40
0.150749
  0
CIRCLE
  8
FROTOR
 62
    10
 10
73.378592
 20
20.205543
 30
0.0
 40
0.150749
  0
ARC
  8
FROTOR
 62
    10
 10
73.681481
 20
21.630524
 30
0.0
 40
0.150749
 50
188.934241
 51
105.299604
  0
CIRCLE
  8
FROTOR
 62
    10
 10
78.272215
 20
24.611782
 30
0.0
 40
0.150749
  0
CIRCLE
  8
FROTOR
 62
    10
 10
79.697196
 20
24.308893
 30
0.0
 40
0.150749
  0
CIRCLE
  8
FROTOR
 62
    10
 10
80.958835
 20
23.580485
 30
0.0
 40
0.150749
  0
CIRCLE
  8
FROTOR
 62
    10
 10
81.933635
 20
22.49786
 30
0.0
 40
0.150749
  0
CIRCLE
  8
FROTOR
 62
    10
 10
82.526175
 20
21.166993
 30
0.0
 40
0.150749
  0
CIRCLE
  8
FROTOR
 62
    10
 10
82.678454
 20
19.718158
 30
0.0
 40
0.150749
  0
CIRCLE
  8
FROTOR
 62
    10
 10
82.375565
 20
18.293178
 30
0.0
 40
0.150749
  0
CIRCLE
  8
FROTOR
 62
    10
 10
81.647157
 20
17.031538
 30
0.0
 40
0.150749
  0
CIRCLE
  8
FROTOR
 62
    10
 10
80.564532
 20
16.056739
 30
0.0
 40
0.150749
  0
CIRCLE
  8
FROTOR
 62
    10
 10
79.233665
 20
15.464198
 30
0.0
 40
0.150749
  0
CIRCLE
  8
FROTOR
 62
    10
 10
77.78483
 20
15.31192
 30
0.0
 40
0.150749
  0
LINE
  8
FROTOR
 10
76.251029
 20
15.873894
 30
0.0
 11
76.089478
 21
15.502354
 31
0.0
  0
LINE
  8
FROTOR
 10
77.989623
 20
15.504345
 30
0.0
 11
77.986087
 21
15.099217
 31
0.0
  0
ARC
  8
FROTOR
 10
78.028523
 20
19.961851
 30
0.0
 40
6.25
 50
176.352987
 51
104.663062
  0
ARC
  8
FROTOR
 10
78.028523
 20
19.961851
 30
0.0
 40
4.862819
 50
163.413953
 51
101.964305
  0
ARC
  8
FWHEEL
 62
     1
 10
78.028523
 20
19.961851
 30
0.0
 40
8.468449
 50
120.877015
 51
122.171506
  0
ARC
  8
FWHEEL
 62
     1
 10
78.028523
 20
19.961851
 30
0.0
 40
9.166861
 50
125.848749
 51
140.370386
  0
ARC
  8
FWHEEL
 62
     1
 10
79.931376
 20
19.166806
 30
0.0
 40
0.2
 50
259.828403
 51
297.0
  0
ARC
  8
FWHEEL
 62
     1
 10
80.109989
 20
20.274188
 30
0.0
 40
0.2
 50
280.418012
 51
295.153423
  0
LINE
  8
FWHEEL
 62
     1
 10
75.718628
 20
22.656947
 30
0.0
 11
75.661381
 21
22.696804
 31
0.0
  0
ARC
  8
FWHEEL
 62
     1
 10
72.661503
 20
25.059241
 30
0.0
 40
0.75394
 50
127.245718
 51
142.280693
  0
ARC
  8
FWHEEL
 62
     1
 10
72.262878
 20
25.367548
 30
0.0
 40
0.25
 50
142.280693
 51
235.153423
  0
ARC
  8
FWHEEL
 62
     1
 10
72.356501
 20
25.460401
 30
0.0
 40
0.25
 50
57.0
 51
127.245718
  0
LINE
  8
FWHEEL
 62
     1
 10
80.022174
 20
18.988605
 30
0.0
 11
80.173375
 21
19.065645
 31
0.0
  0
LINE
  8
FWHEEL
 62
     1
 10
80.193907
 20
19.993212
 30
0.0
 11
81.224925
 21
20.477349
 31
0.0
  0
ARC
  8
FWHEEL
 62
     1
 10
85.126502
 20
22.061131
 30
0.0
 40
0.75394
 50
7.245718
 51
22.280693
  0
ARC
  8
FWHEEL
 62
     1
 10
85.592816
 20
22.252197
 30
0.0
 40
0.25
 50
22.280693
 51
115.153423
  0
ARC
  8
FWHEEL
 62
     1
 10
85.626418
 20
22.124691
 30
0.0
 40
0.25
 50
297.0
 51
7.245718
  0
ARC
  8
FWHEEL
 62
     1
 10
76.10265
 20
12.300461
 30
0.0
 40
0.25
 50
177.0
 51
247.245718
  0
ARC
  8
FWHEEL
 62
     1
 10
76.229874
 20
12.265807
 30
0.0
 40
0.25
 50
262.280693
 51
355.153423
  0
LINE
  8
FWHEEL
 62
     1
 10
76.185857
 20
18.664974
 30
0.0
 11
76.147556
 21
17.934152
 31
0.0
  0
LINE
  8
FWHEEL
 62
     1
 10
75.926147
 20
20.980709
 30
0.0
 11
75.789002
 21
20.91083
 31
0.0
  0
LINE
  8
FWHEEL
 62
     1
 10
75.690236
 20
19.74987
 30
0.0
 11
75.504642
 21
19.662721
 31
0.0
  0
ARC
  8
FWHEEL
 62
     1
 10
78.028523
 20
19.961851
 30
0.0
 40
8.135811
 50
201.139522
 51
251.463231
  0
ARC
  8
FWHEEL
 62
     1
 10
78.028523
 20
19.961851
 30
0.0
 40
7.763626
 50
202.770588
 51
248.021171
  0
ARC
  8
FWHEEL
 62
     1
 10
71.33101
 20
17.15052
 30
0.0
 40
0.5
 50
115.153423
 51
202.770588
  0
ARC
  8
FWHEEL
 62
     1
 10
70.83596
 20
18.948292
 30
0.0
 40
0.5
 50
188.021171
 51
297.0
  0
ARC
  8
FWHEEL
 62
     1
 10
70.930544
 20
17.86257
 30
0.0
 40
0.75394
 50
157.321274
 51
232.453823
  0
ARC
  8
FWHEEL
 62
     1
 10
70.673388
 20
17.11791
 30
0.0
 40
0.25
 50
115.153423
 51
201.139522
  0
ARC
  8
FWHEEL
 62
     1
 10
70.300015
 20
18.394632
 30
0.0
 40
0.25
 50
191.463231
 51
297.0
  0
LINE
  8
FWHEEL
 62
     1
 10
75.789387
 20
22.498018
 30
0.0
 11
75.679541
 21
22.574496
 31
0.0
  0
ARC
  8
FWHEEL
 62
     1
 10
78.028523
 20
19.961851
 30
0.0
 40
8.135811
 50
141.139522
 51
141.73887
  0
ARC
  8
FWHEEL
 62
     1
 10
72.245082
 20
24.356402
 30
0.0
 40
0.5
 50
55.153423
 51
142.770588
  0
ARC
  8
FWHEEL
 62
     1
 10
72.661503
 20
25.059241
 30
0.0
 40
0.75394
 50
98.61519
 51
172.453823
  0
ARC
  8
FWHEEL
 62
     1
 10
71.88803
 20
24.909614
 30
0.0
 40
0.25
 50
55.153423
 51
141.139522
  0
ARC
  8
FWHEEL
 62
     1
 10
72.807018
 20
25.871326
 30
0.0
 40
0.25
 50
202.71277
 51
237.0
  0
LINE
  8
FWHEEL
 62
     1
 10
79.963421
 20
21.298956
 30
0.0
 11
80.002878
 21
22.051847
 31
0.0
  0
ARC
  8
FWHEEL
 62
     1
 10
78.028523
 20
19.961851
 30
0.0
 40
8.135811
 50
81.139522
 51
89.237865
  0
ARC
  8
FWHEEL
 62
     1
 10
78.028523
 20
19.961851
 30
0.0
 40
7.763626
 50
82.770588
 51
91.513513
  0
ARC
  8
FWHEEL
 62
     1
 10
78.942596
 20
27.167733
 30
0.0
 40
0.5
 50
355.153423
 51
82.770588
  0
ARC
  8
FWHEEL
 62
     1
 10
80.747036
 20
26.697573
 30
0.0
 40
0.5
 50
68.021171
 51
177.0
  0
ARC
  8
FWHEEL
 62
     1
 10
79.759482
 20
27.158521
 30
0.0
 40
0.75394
 50
37.321274
 51
112.453823
  0
ARC
  8
FWHEEL
 62
     1
 10
79.243165
 20
27.753555
 30
0.0
 40
0.25
 50
355.153423
 51
81.139522
  0
ARC
  8
FWHEEL
 62
     1
 10
80.535526
 20
27.438544
 30
0.0
 40
0.25
 50
71.463231
 51
177.0
  0
LINE
  8
FWHEEL
 62
     1
 10
79.801171
 20
18.774989
 30
0.0
 11
80.268044
 21
19.012872
 31
0.0
  0
LINE
  8
FWHEEL
 62
     1
 10
80.194998
 20
20.093153
 30
0.0
 11
81.029825
 21
20.485164
 31
0.0
  0
ARC
  8
FWHEEL
 62
     1
 10
78.028523
 20
19.961851
 30
0.0
 40
8.135811
 50
21.139522
 51
71.463231
  0
ARC
  8
FWHEEL
 62
     1
 10
78.028523
 20
19.961851
 30
0.0
 40
7.763626
 50
22.770588
 51
68.021171
  0
ARC
  8
FWHEEL
 62
     1
 10
84.726036
 20
22.773182
 30
0.0
 40
0.5
 50
295.153423
 51
22.770588
  0
ARC
  8
FWHEEL
 62
     1
 10
85.221086
 20
20.97541
 30
0.0
 40
0.5
 50
8.021171
 51
117.0
  0
ARC
  8
FWHEEL
 62
     1
 10
85.126502
 20
22.061131
 30
0.0
 40
0.75394
 50
337.321274
 51
52.453823
  0
ARC
  8
FWHEEL
 62
     1
 10
85.383658
 20
22.805792
 30
0.0
 40
0.25
 50
295.153423
 51
21.139522
  0
ARC
  8
FWHEEL
 62
     1
 10
85.757031
 20
21.529069
 30
0.0
 40
0.25
 50
11.463231
 51
117.0
  0
LINE
  8
FWHEEL
 62
     1
 10
79.118702
 20
17.033381
 30
0.0
 11
79.609628
 21
16.71457
 31
0.0
  0
LINE
  8
FWHEEL
 62
     1
 10
79.854442
 20
17.713375
 30
0.0
 11
81.506471
 21
16.563192
 31
0.0
  0
ARC
  8
FWHEEL
 62
     1
 10
78.028523
 20
19.961851
 30
0.0
 40
8.135811
 50
321.139522
 51
11.463231
  0
ARC
  8
FWHEEL
 62
     1
 10
78.028523
 20
19.961851
 30
0.0
 40
7.763626
 50
322.770588
 51
8.021171
  0
ARC
  8
FWHEEL
 62
     1
 10
83.811963
 20
15.567299
 30
0.0
 40
0.5
 50
235.153423
 51
322.770588
  0
ARC
  8
FWHEEL
 62
     1
 10
82.502572
 20
14.239688
 30
0.0
 40
0.5
 50
308.021171
 51
57.0
  0
ARC
  8
FWHEEL
 62
     1
 10
83.395543
 20
14.864461
 30
0.0
 40
0.75394
 50
277.321274
 51
352.453823
  0
ARC
  8
FWHEEL
 62
     1
 10
84.169016
 20
15.014087
 30
0.0
 40
0.25
 50
235.153423
 51
321.139522
  0
ARC
  8
FWHEEL
 62
     1
 10
83.250028
 20
14.052376
 30
0.0
 40
0.25
 50
311.463231
 51
57.0
  0
ARC
  8
FWHEEL
 62
     1
 10
75.52152
 20
12.485157
 30
0.0
 40
0.25
 50
251.463231
 51
357.0
  0
ARC
  8
FWHEEL
 62
     1
 10
76.81388
 20
12.170147
 30
0.0
 40
0.25
 50
175.153423
 51
261.139522
  0
ARC
  8
FWHEEL
 62
     1
 10
76.297564
 20
12.76518
 30
0.0
 40
0.75394
 50
247.245718
 51
262.280693
  0
ARC
  8
FWHEEL
 62
     1
 10
75.310009
 20
13.226129
 30
0.0
 40
0.5
 50
248.021171
 51
357.0
  0
ARC
  8
FWHEEL
 62
     1
 10
77.11445
 20
12.755969
 30
0.0
 40
0.5
 50
175.153423
 51
262.770588
  0
LINE
  8
FWHEEL
 62
     1
 10
76.093625
 20
18.624746
 30
0.0
 11
76.054168
 21
17.871855
 31
0.0
  0
ARC
  8
FWHEEL
 62
     1
 10
78.028523
 20
19.961851
 30
0.0
 40
7.763626
 50
262.770588
 51
308.021171
  0
ARC
  8
FWHEEL
 62
     1
 10
78.028523
 20
19.961851
 30
0.0
 40
8.135811
 50
261.139522
 51
311.463231
  0
ARC
  8
FWHEEL
 10
78.028523
 20
19.961851
 30
0.0
 40
11.561254
 50
125.96682
 51
130.100672
  0
ARC
  8
FEND
 62
     8
 10
79.076383
 20
19.185416
 30
0.0
 40
0.05
 50
204.0
 51
294.0
  0
ARC
  8
FEND
 62
     8
 10
79.441802
 20
19.348111
 30
0.0
 40
0.05
 50
294.0
 51
24.0
  0
LINE
  8
FEND
 62
     8
 10
79.462138
 20
19.302433
 30
0.0
 11
79.09672
 21
19.139739
 31
0.0
  0
ARC
  8
FEND
 62
     8
 10
79.067931
 20
19.388796
 30
0.0
 40
0.239235
 50
263.275647
 51
325.500067
  0
ARC
  8
FEND
 62
     8
 10
79.296317
 20
19.49048
 30
0.0
 40
0.239235
 50
262.499933
 51
325.500067
  0
LINE
  8
FEND
 62
     8
 10
78.898342
 20
19.307483
 30
0.0
 11
79.470221
 21
19.5621
 31
0.0
  0
LINE
  8
FEND
 62
     8
 10
78.955895
 20
19.333107
 30
0.0
 11
79.030706
 21
19.165079
 31
0.0
  0
LINE
  8
FEND
 62
     8
 10
79.412668
 20
19.536475
 30
0.0
 11
79.487479
 21
19.368448
 31
0.0
  0
LINE
  8
FEND
 62
     8
 10
78.878005
 20
19.35316
 30
0.0
 11
78.898342
 21
19.307483
 31
0.0
  0
LINE
  8
FEND
 62
     8
 10
79.449885
 20
19.607777
 30
0.0
 11
79.470221
 21
19.5621
 31
0.0
  0
LINE
  8
FEND
 62
     8
 10
79.184282
 20
19.434791
 30
0.0
 11
79.26509
 21
19.253292
 31
0.0
  0
LINE
  8
FEND
 62
     8
 10
78.878005
 20
19.35316
 30
0.0
 11
79.449885
 21
19.607777
 31
0.0
  0
ARC
  8
FEND
 10
74.018455
 20
31.869751
 30
0.0
 40
0.07
 50
8.623749
 51
24.0
  0
LINE
  8
FEND
 10
74.425061
 20
31.1286
 30
0.0
 11
73.744949
 21
32.656157
 31
0.0
  0
LINE
  8
FEND
 10
72.141197
 20
30.111759
 30
0.0
 11
71.650765
 21
31.213289
 31
0.0
  0
CIRCLE
  8
FEND
 10
78.028523
 20
19.961851
 30
0.0
 40
0.3
  0
CIRCLE
  8
FCALIPER
 10
73.271017
 20
24.451556
 30
0.0
 40
0.254059
  0
CIRCLE
  8
FCALIPER
 10
72.080026
 20
22.870509
 30
0.0
 40
0.254059
  0
CIRCLE
  8
FCALIPER
 10
71.560953
 20
21.155476
 30
0.0
 40
0.254059
  0
LINE
  8
FCALIPER
 10
72.05222
 20
23.51117
 30
0.0
 11
71.972982
 21
23.349549
 31
0.0
  0
LINE
  8
FCALIPER
 10
71.178649
 20
21.586687
 30
0.0
 11
71.316016
 21
21.088005
 31
0.0
  0
LINE
  8
FCALIPER
 10
71.839636
 20
23.24003
 30
0.0
 11
71.832919
 21
23.260307
 31
0.0
  0
LINE
  8
FCALIPER
 10
71.845818
 20
23.449077
 30
0.0
 11
71.999665
 21
23.762497
 31
0.0
  0
LINE
  8
FCALIPER
 10
71.826789
 20
23.051366
 30
0.0
 11
71.195198
 21
21.763133
 31
0.0
  0
LINE
  8
FCALIPER
 10
72.544265
 20
24.693233
 30
0.0
 11
73.044365
 21
24.846975
 31
0.0
  0
ARC
  8
FCALIPER
 10
72.970902
 20
25.085937
 30
0.0
 40
0.25
 50
287.088564
 51
311.031011
  0
ARC
  8
FCALIPER
 10
72.617728
 20
24.45427
 30
0.0
 40
0.25
 50
107.088564
 51
153.855164
  0
ARC
  8
FCALIPER
 10
72.070239
 20
23.338917
 30
0.0
 40
0.25
 50
153.855164
 51
198.326897
  0
ARC
  8
FCALIPER
 10
71.602316
 20
23.16142
 30
0.0
 40
0.25
 50
333.882348
 51
18.326897
  0
ARC
  8
FCALIPER
 10
71.419671
 20
21.65308
 30
0.0
 40
0.25
 50
153.882348
 51
195.400848
  0
ARC
  8
FWHEEL
 62
     1
 10
78.028523
 20
19.961851
 30
0.0
 40
8.135811
 50
147.971548
 51
191.463231
  0
ARC
  8
FWHEEL
 62
     1
 10
78.028523
 20
19.961851
 30
0.0
 40
8.468449
 50
146.183335
 51
87.426966
  0
LINE
  8
FCALIPER
 10
72.485887
 20
24.275328
 30
0.0
 11
72.229797
 21
23.609673
 31
0.0
  0
ARC
  8
FWHEEL
 62
     1
 10
78.028523
 20
19.961851
 30
0.0
 40
7.763626
 50
148.700087
 51
188.021171
  0
LINE
  8
FCALIPER
 10
72.262101
 20
24.297135
 30
0.0
 11
72.393307
 21
24.564431
 31
0.0
  0
ARC
  8
FCALIPER
 62
     8
 10
79.529723
 20
28.437072
 30
0.0
 40
9.25575
 50
167.683221
 51
201.56446
  0
ARC
  8
FCALIPER
 62
     8
 10
79.529723
 20
28.437072
 30
0.0
 40
8.95575
 50
165.592215
 51
201.56446
  0
LINE
  8
FCALIPER
 10
71.558653
 20
20.901427
 30
0.0
 11
72.04078
 21
20.564285
 31
0.0
  0
LINE
  8
FCALIPER
 10
71.828754
 20
21.088706
 30
0.0
 11
72.217435
 21
20.816909
 31
0.0
  0
LINE
  8
FCALIPER
 10
72.217435
 20
20.816909
 30
0.0
 11
72.04078
 21
20.564285
 31
0.0
  0
LINE
  8
FCALIPER
 10
71.828754
 20
21.088706
 30
0.0
 11
71.652099
 21
20.836082
 31
0.0
  0
LINE
  8
FCALIPER
 62
     8
 10
71.6089
 20
20.622242
 30
0.0
 11
71.854753
 21
20.450322
 31
0.0
  0
LINE
  8
FCALIPER
 62
     8
 10
71.748099
 20
20.768951
 30
0.0
 11
71.633485
 21
20.60505
 31
0.0
  0
LINE
  8
FCALIPER
 62
     8
 10
71.944781
 20
20.631415
 30
0.0
 11
71.830168
 21
20.467514
 31
0.0
  0
LINE
  8
FCALIPER
 10
73.93269
 20
22.592735
 30
0.0
 11
73.573021
 21
22.769073
 31
0.0
  0
LINE
  8
FCALIPER
 10
74.038342
 20
22.808229
 30
0.0
 11
73.587216
 21
23.029406
 31
0.0
  0
LINE
  8
FCALIPER
 10
73.780932
 20
23.560818
 30
0.0
 11
73.559755
 21
23.109693
 31
0.0
  0
LINE
  8
FCALIPER
 10
73.565438
 20
23.66647
 30
0.0
 11
73.344261
 21
23.215344
 31
0.0
  0
LINE
  8
FCALIPER
 10
73.168531
 20
21.462154
 30
0.0
 11
72.978054
 21
21.55554
 31
0.0
  0
LINE
  8
FCALIPER
 10
73.062879
 20
21.24666
 30
0.0
 11
72.780945
 21
21.384886
 31
0.0
  0
LINE
  8
FCALIPER
 10
72.485165
 20
21.463077
 30
0.0
 11
72.346939
 21
21.181143
 31
0.0
  0
LINE
  8
FCALIPER
 10
72.700659
 20
21.357425
 30
0.0
 11
72.562433
 21
21.075491
 31
0.0
  0
LINE
  8
FCALIPER
 10
73.492734
 20
22.741612
 30
0.0
 11
72.950593
 21
21.635827
 31
0.0
  0
LINE
  8
FCALIPER
 10
73.095948
 20
22.936148
 30
0.0
 11
72.553807
 21
21.830362
 31
0.0
  0
LINE
  8
FCALIPER
 10
73.068487
 20
23.016434
 30
0.0
 11
72.707197
 21
23.193566
 31
0.0
  0
LINE
  8
FCALIPER
 10
72.47352
 20
21.802902
 30
0.0
 11
72.281422
 21
21.897083
 31
0.0
  0
LINE
  8
FCALIPER
 10
72.457704
 20
21.543363
 30
0.0
 11
72.17577
 21
21.681589
 31
0.0
  0
LINE
  8
FCALIPER
 10
73.263975
 20
23.187884
 30
0.0
 11
72.812849
 21
23.40906
 31
0.0
  0
ARC
  8
FCALIPER
 10
73.613629
 20
23.08328
 30
0.0
 40
0.06
 50
153.882348
 51
243.882348
  0
ARC
  8
FCALIPER
 10
73.290388
 20
23.241757
 30
0.0
 40
0.06
 50
243.882348
 51
333.882348
  0
ARC
  8
FCALIPER
 10
73.546608
 20
22.715199
 30
0.0
 40
0.06
 50
63.882348
 51
153.882348
  0
ARC
  8
FCALIPER
 10
73.042074
 20
22.962561
 30
0.0
 40
0.06
 50
333.882348
 51
63.882348
  0
ARC
  8
FCALIPER
 10
73.004467
 20
21.609414
 30
0.0
 40
0.06
 50
153.882348
 51
243.882348
  0
ARC
  8
FCALIPER
 10
72.754532
 20
21.331012
 30
0.0
 40
0.06
 50
63.882348
 51
153.882348
  0
ARC
  8
FCALIPER
 10
72.431291
 20
21.48949
 30
0.0
 40
0.06
 50
333.882348
 51
63.882348
  0
ARC
  8
FCALIPER
 10
72.499933
 20
21.856775
 30
0.0
 40
0.06
 50
243.882348
 51
333.882348
  0
ARC
  8
FCALIPER
 10
72.307835
 20
21.950957
 30
0.0
 40
0.06
 50
133.861827
 51
243.882348
  0
ARC
  8
FCALIPER
 10
72.149357
 20
21.627715
 30
0.0
 40
0.06
 50
63.882348
 51
173.902869
  0
ARC
  8
FCALIPER
 10
72.293066
 20
21.207556
 30
0.0
 40
0.06
 50
223.861827
 51
333.882348
  0
ARC
  8
FCALIPER
 10
72.616307
 20
21.049078
 30
0.0
 40
0.06
 50
153.882348
 51
263.902869
  0
ARC
  8
FCALIPER
 10
73.036466
 20
21.192786
 30
0.0
 40
0.06
 50
313.861827
 51
63.882348
  0
ARC
  8
FCALIPER
 10
73.194944
 20
21.516027
 30
0.0
 40
0.06
 50
243.882348
 51
353.902869
  0
ARC
  8
FCALIPER
 10
73.906277
 20
22.538862
 30
0.0
 40
0.06
 50
319.106303
 51
63.882348
  0
ARC
  8
FCALIPER
 10
74.064755
 20
22.862103
 30
0.0
 40
0.06
 50
243.882348
 51
348.658393
  0
ARC
  8
FCALIPER
 10
73.834806
 20
23.534405
 30
0.0
 40
0.06
 50
49.106303
 51
153.882348
  0
ARC
  8
FCALIPER
 10
73.511565
 20
23.692883
 30
0.0
 40
0.06
 50
333.882348
 51
78.658393
  0
ARC
  8
FCALIPER
 10
72.839262
 20
23.462934
 30
0.0
 40
0.06
 50
139.106303
 51
243.882348
  0
ARC
  8
FCALIPER
 10
72.680784
 20
23.139693
 30
0.0
 40
0.06
 50
63.882348
 51
168.658393
  0
LINE
  8
FCALIPER
 10
74.274664
 20
24.918096
 30
0.0
 11
74.148434
 21
24.260457
 31
0.0
  0
LINE
  8
FCALIPER
 10
74.140759
 20
24.046039
 30
0.0
 11
74.215339
 21
23.417382
 31
0.0
  0
ARC
  8
FCALIPER
 10
74.910465
 20
23.499848
 30
0.0
 40
0.7
 50
186.765617
 51
209.188735
  0
ARC
  8
FCALIPER
 10
74.835884
 20
24.128504
 30
0.0
 40
0.7
 50
169.134509
 51
186.765617
  0
CIRCLE
  8
FCALIPER
 10
71.795613
 20
21.78277
 30
0.0
 40
0.134142
  0
LINE
  8
FCALIPER
 10
72.851524
 20
25.479565
 30
0.0
 11
73.869518
 21
25.667226
 31
0.0
  0
LINE
  8
FEND
 10
76.698195
 20
19.935066
 30
0.0
 11
76.469904
 21
20.447817
 31
0.0
  0
LINE
  8
FEND
 62
     8
 10
76.814286
 20
20.76741
 30
0.0
 11
76.89762
 21
20.623072
 31
0.0
  0
CIRCLE
  8
FEND
 62
     8
 10
76.980953
 20
20.76741
 30
0.0
 40
0.254059
  0
LINE
  8
FEND
 62
     8
 10
76.89762
 20
20.623072
 30
0.0
 11
77.064286
 21
20.623072
 31
0.0
  0
LINE
  8
FEND
 62
     8
 10
77.064286
 20
20.623072
 30
0.0
 11
77.14762
 21
20.76741
 31
0.0
  0
LINE
  8
FEND
 62
     8
 10
77.14762
 20
20.76741
 30
0.0
 11
77.064286
 21
20.911748
 31
0.0
  0
LINE
  8
FEND
 62
     8
 10
77.064286
 20
20.911748
 30
0.0
 11
76.89762
 21
20.911748
 31
0.0
  0
LINE
  8
FEND
 62
     8
 10
76.89762
 20
20.911748
 30
0.0
 11
76.814286
 21
20.76741
 31
0.0
  0
CIRCLE
  8
FEND
 62
     8
 10
76.980953
 20
20.76741
 30
0.0
 40
0.194059
  0
LINE
  8
FCALIPER
 10
75.730712
 20
19.65896
 30
0.0
 11
75.535478
 21
20.097462
 31
0.0
  0
LINE
  8
FCALIPER
 10
75.936842
 20
19.750735
 30
0.0
 11
75.741608
 21
20.189237
 31
0.0
  0
LINE
  8
FCALIPER
 10
76.074199
 20
19.81189
 30
0.0
 11
76.326983
 21
19.924437
 31
0.0
  0
LINE
  8
FCALIPER
 10
75.878965
 20
20.250392
 30
0.0
 11
76.131749
 21
20.362939
 31
0.0
  0
LINE
  8
FCALIPER
 10
75.766012
 20
20.134424
 30
0.0
 11
75.903369
 21
20.195579
 31
0.0
  0
LINE
  8
FCALIPER
 10
75.912437
 20
19.805548
 30
0.0
 11
76.049795
 21
19.866703
 31
0.0
  0
LINE
  8
BARS
 10
71.405463
 20
45.841918
 30
0.0
 11
71.135243
 21
46.17133
 31
0.0
  0
ARC
  8
RADIATOR
 10
57.689765
 20
27.58057
 30
0.0
 40
3.82
 50
316.614783
 51
336.614751
  0
LINE
  8
RADIATOR
 10
61.758844
 20
27.365992
 30
0.0
 11
61.195979
 21
26.064368
 31
0.0
  0
ARC
  8
RADIATOR
 10
57.689765
 20
27.58057
 30
0.0
 40
5.0
 50
302.096103
 51
336.614751
  0
LINE
  8
RADIATOR
 10
60.34647
 20
23.34478
 30
0.0
 11
59.640894
 21
22.90224
 31
0.0
  0
LINE
  8
RADIATOR
 10
62.841915
 20
26.897637
 30
0.0
 11
62.27905
 21
25.596012
 31
0.0
  0
LINE
  8
RADIATOR
 10
62.906662
 20
27.084369
 30
0.0
 11
61.79178
 21
27.470942
 31
0.0
  0
LINE
  8
RADIATOR
 10
61.79178
 20
27.470942
 30
0.0
 11
61.727033
 21
27.284209
 31
0.0
  0
LINE
  8
RADIATOR
 10
62.906662
 20
27.084369
 30
0.0
 11
62.841915
 21
26.897637
 31
0.0
  0
LINE
  8
RADIATOR
 10
62.08286
 20
28.035697
 30
0.0
 11
61.876814
 21
27.441457
 31
0.0
  0
LINE
  8
RADIATOR
 10
63.027675
 20
27.708093
 30
0.0
 11
62.821629
 21
27.113853
 31
0.0
  0
ARC
  8
RADIATOR
 10
62.155644
 20
28.407362
 30
0.0
 40
0.375
 50
160.87659
 51
250.87659
  0
ARC
  8
RADIATOR
 10
64.430238
 20
27.618673
 30
0.0
 40
0.375
 50
250.87659
 51
340.87659
  0
LINE
  8
RADIATOR
 10
62.611457
 20
30.866608
 30
0.0
 11
61.801339
 21
28.530214
 31
0.0
  0
LINE
  8
RADIATOR
 10
64.307386
 20
27.264367
 30
0.0
 11
62.032793
 21
28.053057
 31
0.0
  0
LINE
  8
RADIATOR
 10
65.739437
 20
30.249749
 30
0.0
 11
64.784543
 21
27.495821
 31
0.0
  0
LINE
  8
BARS
 10
70.144067
 20
41.372726
 30
0.0
 11
69.669296
 21
40.816951
 31
0.0
  0
LINE
  8
BARS
 10
70.050462
 20
41.725028
 30
0.0
 11
69.534112
 21
41.12058
 31
0.0
  0
LINE
  8
BARS
 10
70.61363
 20
41.922405
 30
0.0
 11
70.461169
 21
41.743931
 31
0.0
  0
POLYLINE
  8
BARS
 62
     8
 66
     1
 10
0.0
 20
0.0
 30
0.0
  0
VERTEX
  8
BARS
 62
     8
 10
68.487587
 20
46.361039
 30
0.0
 42
0.014227
 50
333.549866
  0
VERTEX
  8
BARS
 62
     8
 10
68.656852
 20
46.337019
 30
0.0
 42
0.037433
 50
353.553219
  0
VERTEX
  8
BARS
 62
     8
 10
69.105818
 20
46.320091
 30
0.0
 42
0.049907
 50
353.553219
  0
VERTEX
  8
BARS
 62
     8
 10
69.440015
 20
46.366122
 30
0.0
 42
0.057368
 70
     2
 50
13.556573
  0
VERTEX
  8
BARS
 62
     8
 10
69.618408
 20
46.431486
 30
0.0
 42
0.215701
 50
13.556573
  0
SEQEND
  8
BARS
  0
POLYLINE
  8
BARS
 62
     8
 66
     1
 10
0.0
 20
0.0
 30
0.0
  0
VERTEX
  8
BARS
 62
     8
 10
67.846067
 20
46.569469
 30
0.0
 42
0.018464
 50
353.553219
  0
VERTEX
  8
BARS
 62
     8
 10
67.899929
 20
46.540143
 30
0.0
 42
0.032031
 70
     2
 50
333.549866
  0
VERTEX
  8
BARS
 62
     8
 10
68.099851
 20
46.456183
 30
0.0
 42
0.037433
 50
333.549866
  0
SEQEND
  8
BARS
  0
POLYLINE
  8
BARS
 66
     1
 10
0.0
 20
0.0
 30
0.0
  0
VERTEX
  8
BARS
 10
68.36917
 20
46.280671
 30
0.0
 42
0.022536
 50
333.549866
  0
VERTEX
  8
BARS
 10
68.645523
 20
46.236759
 30
0.0
 42
0.037433
 50
353.553219
  0
VERTEX
  8
BARS
 10
69.109565
 20
46.219262
 30
0.0
 42
0.049907
 50
353.553219
  0
VERTEX
  8
BARS
 10
69.463666
 20
46.268035
 30
0.0
 42
0.093241
 70
     2
 50
13.556573
  0
VERTEX
  8
BARS
 10
69.777816
 20
46.409288
 30
0.0
 42
0.001501
 50
13.556573
  0
VERTEX
  8
BARS
 10
69.779133
 20
46.410212
 30
0.0
 42
0.215701
 50
353.553219
  0
SEQEND
  8
BARS
  0
POLYLINE
  8
BARS
 66
     1
 10
0.0
 20
0.0
 30
0.0
  0
VERTEX
  8
BARS
 10
67.667091
 20
46.573643
 30
0.0
 42
0.060614
 50
353.553219
  0
VERTEX
  8
BARS
 10
67.854987
 20
46.449807
 30
0.0
 42
0.021696
 70
     2
 50
333.549866
  0
VERTEX
  8
BARS
 10
67.997272
 20
46.386564
 30
0.0
 42
0.037433
 50
333.549866
  0
SEQEND
  8
BARS
  0
LINE
  8
BARS
 10
67.479336
 20
45.676756
 30
0.0
 11
67.419428
 21
45.146572
 31
0.0
  0
POLYLINE
  8
BARS
 66
     1
 10
0.0
 20
0.0
 30
0.0
  0
VERTEX
  8
BARS
 10
67.832674
 20
45.91656
 30
0.0
 42
0.044329
 70
     2
 50
333.549866
  0
VERTEX
  8
BARS
 10
68.13099
 20
45.807403
 30
0.0
 42
0.037433
 50
333.549866
  0
VERTEX
  8
BARS
 10
68.587235
 20
45.720912
 30
0.0
 42
0.037433
 50
353.553219
  0
VERTEX
  8
BARS
 10
69.051277
 20
45.703416
 30
0.0
 42
0.049907
 50
353.553219
  0
VERTEX
  8
BARS
 10
69.405378
 20
45.752188
 30
0.0
 42
0.093241
 70
     2
 50
13.556573
  0
VERTEX
  8
BARS
 10
69.719528
 20
45.893441
 30
0.0
 42
0.215701
 50
13.556573
  0
VERTEX
  8
BARS
 10
69.832625
 20
46.083229
 30
0.0
 42
0.215701
 50
353.553219
  0
SEQEND
  8
BARS
  0
POLYLINE
  8
BARS
 66
     1
 10
0.0
 20
0.0
 30
0.0
  0
VERTEX
  8
BARS
 10
67.454094
 20
46.35199
 30
0.0
 42
0.215701
 50
353.553219
  0
VERTEX
  8
BARS
 10
67.52199
 20
46.141751
 30
0.0
 42
0.017542
 50
353.553219
  0
VERTEX
  8
BARS
 10
67.56759
 20
46.094946
 30
0.0
 42
0.049907
 70
     2
 50
333.549866
  0
SEQEND
  8
BARS
  0
POLYLINE
  8
BARS
 62
     7
 66
     1
 10
0.0
 20
0.0
 30
0.0
  0
VERTEX
  8
BARS
 62
     7
 10
67.152802
 20
44.372386
 30
0.0
 42
0.028625
 70
     2
 50
101.441173
  0
VERTEX
  8
BARS
 62
     7
 10
67.113998
 20
44.462485
 30
0.0
 42
0.065028
 50
101.441173
  0
VERTEX
  8
BARS
 62
     7
 10
66.985441
 20
44.652927
 30
0.0
 42
0.052293
 50
38.553619
  0
VERTEX
  8
BARS
 62
     7
 10
66.807364
 20
44.833884
 30
0.0
 42
0.066151
 50
38.553619
  0
VERTEX
  8
BARS
 62
     7
 10
66.636706
 20
44.940122
 30
0.0
 42
0.104726
 70
     2
 50
155.666066
  0
VERTEX
  8
BARS
 62
     7
 10
66.454914
 20
44.980015
 30
0.0
 42
0.003149
 50
155.666066
  0
VERTEX
  8
BARS
 62
     7
 10
66.452732
 20
44.980017
 30
0.0
 42
0.171711
 50
38.553619
  0
SEQEND
  8
BARS
  0
POLYLINE
  8
BARS
 62
     7
 66
     1
 10
0.0
 20
0.0
 30
0.0
  0
VERTEX
  8
BARS
 62
     7
 10
67.255174
 20
44.453973
 30
0.0
 42
0.018029
 70
     2
 50
101.441173
  0
VERTEX
  8
BARS
 62
     7
 10
67.225787
 20
44.518416
 30
0.0
 42
0.064234
 50
101.441173
  0
VERTEX
  8
BARS
 62
     7
 10
67.08123
 20
44.733291
 30
0.0
 42
0.051705
 50
38.553619
  0
VERTEX
  8
BARS
 62
     7
 10
66.886828
 20
44.930375
 30
0.0
 42
0.066151
 50
38.553619
  0
VERTEX
  8
BARS
 62
     7
 10
66.688213
 20
45.054017
 30
0.0
 42
0.038214
 70
     2
 50
155.666066
  0
VERTEX
  8
BARS
 62
     7
 10
66.60584
 20
45.083929
 30
0.0
 42
0.171711
 50
155.666066
  0
SEQEND
  8
BARS
  0
POLYLINE
  8
BARS
 62
     7
 66
     1
 10
0.0
 20
0.0
 30
0.0
  0
VERTEX
  8
BARS
 62
     7
 10
65.549612
 20
44.787458
 30
0.0
 42
0.045248
 70
     2
 50
155.11867
  0
VERTEX
  8
BARS
 62
     7
 10
65.397477
 20
44.804166
 30
0.0
 42
0.174706
 50
155.11867
  0
VERTEX
  8
BARS
 62
     7
 10
65.19628
 20
44.735931
 30
0.0
 42
0.174705
 50
38.553619
  0
SEQEND
  8
BARS
  0
POLYLINE
  8
BARS
 62
     7
 66
     1
 10
0.0
 20
0.0
 30
0.0
  0
VERTEX
  8
BARS
 62
     7
 10
66.667144
 20
42.890352
 30
0.0
 42
0.174705
 50
38.553619
  0
VERTEX
  8
BARS
 62
     7
 10
66.778549
 20
43.071251
 30
0.0
 42
0.104203
 50
38.553619
  0
VERTEX
  8
BARS
 62
     7
 10
66.777996
 20
43.420645
 30
0.0
 42
0.064948
 70
     2
 50
101.988568
  0
VERTEX
  8
BARS
 62
     7
 10
66.636597
 20
43.821709
 30
0.0
 42
0.063643
 50
101.988568
  0
VERTEX
  8
BARS
 62
     7
 10
66.393107
 20
44.180858
 30
0.0
 42
0.051099
 50
38.553619
  0
VERTEX
  8
BARS
 62
     7
 10
66.057435
 20
44.523586
 30
0.0
 42
0.018651
 50
38.553619
  0
VERTEX
  8
BARS
 62
     7
 10
65.971101
 20
44.590092
 30
0.0
 42
0.104203
 70
     2
 50
155.11867
  0
SEQEND
  8
BARS
  0
LINE
  8
FRAME
 10
65.377452
 20
44.803905
 30
0.0
 11
65.932115
 21
45.050857
 31
0.0
  0
ARC
  8
BARS
 10
65.924446
 20
44.80014
 30
0.0
 40
0.15
 50
116.424847
 51
313.921031
  0
LINE
  8
BARS
 10
65.812133
 20
44.965627
 30
0.0
 11
65.317691
 21
44.630057
 31
0.0
  0
LINE
  8
BARS
 10
66.036759
 20
44.634654
 30
0.0
 11
65.542317
 21
44.299084
 31
0.0
  0
ARC
  8
BARS
 10
65.924446
 20
44.80014
 30
0.0
 40
0.2
 50
82.166092
 51
346.504875
  0
ARC
  8
BARS
 10
65.430004
 20
44.464571
 30
0.0
 40
0.2
 50
124.163778
 51
304.164408
  0
LINE
  8
BARS
 10
71.551691
 20
43.482392
 30
0.0
 11
71.073321
 21
42.922405
 31
0.0
  0
ARC
  8
BARS
 10
70.259109
 20
44.586581
 30
0.0
 40
1.7
 50
319.494389
 51
47.598144
  0
LINE
  8
BARS
 10
65.986429
 20
44.663545
 30
0.0
 11
68.726187
 21
46.522973
 31
0.0
  0
ARC
  8
BARS
 10
70.259109
 20
44.586581
 30
0.0
 40
2.0
 50
319.494389
 51
47.551327
  0
LINE
  8
BARS
 10
71.779793
 20
43.287536
 30
0.0
 11
71.46788
 21
42.922405
 31
0.0
  0
LINE
  8
BARS
 10
65.824265
 20
44.911781
 30
0.0
 11
68.243704
 21
46.553813
 31
0.0
  0
LINE
  8
FRAME
 10
70.018868
 20
42.922405
 30
0.0
 11
74.076233
 21
42.922405
 31
0.0
  0
LINE
  8
FRAME
 10
70.408791
 20
41.922405
 30
0.0
 11
75.501952
 21
41.922405
 31
0.0
  0
ARC
  8
BARS
 62
     8
 10
63.431526
 20
39.777825
 30
0.0
 40
6.899414
 50
359.598802
 51
31.489667
  0
ARC
  8
BARS
 62
     8
 10
63.431526
 20
39.777825
 30
0.0
 40
7.299414
 50
0.469112
 51
31.489667
  0
POLYLINE
  8
BARS
 66
     1
 10
0.0
 20
0.0
 30
0.0
  0
VERTEX
  8
BARS
 10
67.419428
 20
45.146572
 30
0.0
 42
0.215701
 50
353.553219
  0
VERTEX
  8
BARS
 10
67.46176
 20
45.015492
 30
0.0
 42
0.093241
 50
353.553219
  0
VERTEX
  8
BARS
 10
67.706715
 20
44.830207
 30
0.0
 42
0.049907
 70
     2
 50
333.549866
  0
VERTEX
  8
BARS
 10
68.022215
 20
44.710764
 30
0.0
 42
0.037433
 50
333.549866
  0
VERTEX
  8
BARS
 10
68.463638
 20
44.627082
 30
0.0
 42
0.037433
 50
353.553219
  0
VERTEX
  8
BARS
 10
68.912604
 20
44.610154
 30
0.0
 42
0.049907
 50
353.553219
  0
VERTEX
  8
BARS
 10
69.246802
 20
44.656185
 30
0.0
 42
0.093241
 70
     2
 50
13.556573
  0
VERTEX
  8
BARS
 10
69.526925
 20
44.782139
 30
0.0
 42
0.2157
 50
13.556573
  0
VERTEX
  8
BARS
 10
69.597439
 20
44.900468
 30
0.0
 42
0.215701
 50
353.553219
  0
SEQEND
  8
BARS
  0
LINE
  8
BARS
 10
67.530798
 20
46.132188
 30
0.0
 11
67.523184
 21
46.064809
 31
0.0
  0
LINE
  8
BARS
 10
69.708808
 20
45.886084
 30
0.0
 11
69.597439
 21
44.900468
 31
0.0
  0
LINE
  8
BARS
 10
67.479418
 20
46.576109
 30
0.0
 11
67.454094
 21
46.35199
 31
0.0
  0
LINE
  8
BARS
 10
69.868169
 20
46.397792
 30
0.0
 11
69.832625
 21
46.083229
 31
0.0
  0
LINE
  8
FRAME
 10
69.177117
 20
41.922405
 30
0.0
 11
69.98917
 21
41.922405
 31
0.0
  0
LINE
  8
FRAME
 10
68.731888
 20
42.922405
 30
0.0
 11
69.572661
 21
42.922405
 31
0.0
  0
LINE
  8
FEND
 10
67.307554
 20
41.961571
 30
0.0
 11
68.504631
 21
39.272892
 31
0.0
  0
LINE
  8
FEND
 10
65.885938
 20
45.154574
 30
0.0
 11
66.746648
 21
45.537787
 31
0.0
  0
LINE
  8
FEND
 10
66.788368
 20
43.127682
 30
0.0
 11
67.094699
 21
42.439653
 31
0.0
  0
LINE
  8
FEND
 10
68.581967
 20
43.259132
 30
0.0
 11
70.172107
 21
39.687621
 31
0.0
  0
ARC
  8
FRAME
 10
63.719621
 20
42.823049
 30
0.0
 40
0.23731
 50
93.470453
 51
142.529547
  0
ARC
  8
FRAME
 10
63.893601
 20
42.915556
 30
0.0
 40
0.23731
 50
93.470453
 51
142.529547
  0
LINE
  8
FRAME
 10
63.540132
 20
42.996383
 30
0.0
 11
63.850269
 21
43.161286
 31
0.0
  0
ARC
  8
FRAME
 10
63.860324
 20
43.142375
 30
0.0
 40
0.021418
 50
28.0
 51
118.0
  0
ARC
  8
FRAME
 10
63.550187
 20
42.977472
 30
0.0
 40
0.021418
 50
118.0
 51
208.0
  0
LINE
  8
FRAME
 10
63.944901
 20
43.02893
 30
0.0
 11
63.879235
 21
43.15243
 31
0.0
  0
LINE
  8
FRAME
 10
63.613728
 20
42.812348
 30
0.0
 11
63.531276
 21
42.967417
 31
0.0
  0
LINE
  8
FRAME
 10
63.787707
 20
42.904855
 30
0.0
 11
63.705256
 21
43.059924
 31
0.0
  0
LINE
  8
FRAME
 10
63.608509
 20
42.809574
 30
0.0
 11
63.792243
 21
42.907267
 31
0.0
  0
LINE
  8
FRAME
 10
63.607211
 20
42.791034
 30
0.0
 11
63.724952
 21
42.853638
 31
0.0
  0
ARC
  8
FRAME
 10
63.613134
 20
42.800877
 30
0.0
 40
0.00985
 50
118.0
 51
208.0
  0
LINE
  8
FRAME
 10
64.483518
 20
41.859775
 30
0.0
 11
65.418832
 21
42.350921
 31
0.0
  0
LINE
  8
FRAME
 10
64.898998
 20
42.190898
 30
0.0
 11
65.310063
 21
42.406754
 31
0.0
  0
ARC
  8
BARS
 62
     7
 10
67.766464
 20
43.812536
 30
0.0
 40
0.25
 50
86.968755
 51
140.76975
  0
ARC
  8
BARS
 62
     7
 10
67.836205
 20
43.973567
 30
0.0
 40
0.25
 50
86.968755
 51
128.553619
  0
ARC
  8
BARS
 62
     7
 10
68.686835
 20
44.639819
 30
0.0
 40
0.25
 50
182.202772
 51
218.958956
  0
LINE
  8
BARS
 62
     7
 10
66.715688
 20
43.638736
 30
0.0
 11
66.894453
 21
43.781206
 31
0.0
  0
LINE
  8
BARS
 62
     7
 10
67.066589
 20
44.303677
 30
0.0
 11
67.719414
 21
44.823956
 31
0.0
  0
POLYLINE
  8
BARS
 62
     7
 66
     1
 10
0.0
 20
0.0
 30
0.0
  0
VERTEX
  8
BARS
 62
     7
 10
65.231062
 20
42.455541
 30
0.0
 42
0.038276
 50
38.553619
  0
VERTEX
  8
BARS
 62
     7
 10
65.412892
 20
42.353648
 30
0.0
 42
0.104203
 70
     2
 50
335.11867
  0
VERTEX
  8
BARS
 62
     7
 10
65.751644
 20
42.275544
 30
0.0
 42
0.174705
 50
335.11867
  0
VERTEX
  8
BARS
 62
     7
 10
66.002423
 20
42.360593
 30
0.0
 42
0.174705
 50
335.11867
  0
SEQEND
  8
BARS
  0
POLYLINE
  8
BARS
 62
     7
 66
     1
 10
0.0
 20
0.0
 30
0.0
  0
VERTEX
  8
BARS
 62
     7
 10
64.53156
 20
44.206172
 30
0.0
 42
0.174705
 50
38.553619
  0
VERTEX
  8
BARS
 62
     7
 10
64.420154
 20
44.025274
 30
0.0
 42
0.104203
 50
38.553619
  0
VERTEX
  8
BARS
 62
     7
 10
64.420707
 20
43.675879
 30
0.0
 42
0.038728
 70
     2
 50
281.988568
  0
VERTEX
  8
BARS
 62
     7
 10
64.484619
 20
43.459066
 30
0.0
 42
0.051099
 50
281.988568
  0
SEQEND
  8
BARS
  0
POLYLINE
  8
BARS
 62
     7
 66
     1
 10
0.0
 20
0.0
 30
0.0
  0
VERTEX
  8
BARS
 62
     7
 10
66.002423
 20
42.360593
 30
0.0
 42
0.174705
 50
38.553619
  0
VERTEX
  8
BARS
 62
     7
 10
66.113829
 20
42.541492
 30
0.0
 42
0.104203
 50
38.553619
  0
VERTEX
  8
BARS
 62
     7
 10
66.113276
 20
42.890887
 30
0.0
 42
0.064948
 70
     2
 50
101.988568
  0
VERTEX
  8
BARS
 62
     7
 10
65.971877
 20
43.29195
 30
0.0
 42
0.063643
 50
101.988568
  0
VERTEX
  8
BARS
 62
     7
 10
65.728387
 20
43.651099
 30
0.0
 42
0.051099
 50
38.553619
  0
VERTEX
  8
BARS
 62
     7
 10
65.392715
 20
43.993827
 30
0.0
 42
0.064948
 50
38.553619
  0
VERTEX
  8
BARS
 62
     7
 10
65.073219
 20
44.195908
 30
0.0
 42
0.104203
 70
     2
 50
155.11867
  0
VERTEX
  8
BARS
 62
     7
 10
64.732756
 20
44.274407
 30
0.0
 42
0.174706
 50
155.11867
  0
VERTEX
  8
BARS
 62
     7
 10
64.53156
 20
44.206172
 30
0.0
 42
0.174705
 50
38.553619
  0
SEQEND
  8
BARS
  0
POLYLINE
  8
FEND
 66
     1
 10
0.0
 20
0.0
 30
0.0
  0
VERTEX
  8
FEND
 10
66.821939
 20
46.196858
 30
0.0
 50
357.0
  0
VERTEX
  8
FEND
 10
66.870811
 20
46.236767
 30
0.0
 42
0.129653
 50
357.0
  0
VERTEX
  8
FEND
 10
66.920421
 20
46.338844
 30
0.0
 42
0.09277
 70
     2
 50
78.854455
  0
VERTEX
  8
FEND
 10
66.921319
 20
46.433168
 30
0.0
 50
78.854455
  0
VERTEX
  8
FEND
 10
66.900726
 20
46.505596
 30
0.0
 50
357.0
  0
VERTEX
  8
FEND
 10
66.860681
 20
46.569362
 30
0.0
 42
0.00123
 50
357.0
  0
VERTEX
  8
FEND
 10
66.859903
 20
46.570355
 30
0.0
 42
0.129653
 70
     2
 50
149.145545
  0
SEQEND
  8
FEND
  0
POLYLINE
  8
FEND
 66
     1
 10
0.0
 20
0.0
 30
0.0
  0
VERTEX
  8
FEND
 10
66.707746
 20
46.146016
 30
0.0
 50
357.0
  0
VERTEX
  8
FEND
 10
66.756618
 20
46.185925
 30
0.0
 42
0.129653
 50
357.0
  0
VERTEX
  8
FEND
 10
66.806228
 20
46.288002
 30
0.0
 42
0.09277
 70
     2
 50
78.854455
  0
VERTEX
  8
FEND
 10
66.807126
 20
46.382326
 30
0.0
 50
78.854455
  0
VERTEX
  8
FEND
 10
66.786533
 20
46.454753
 30
0.0
 50
357.0
  0
VERTEX
  8
FEND
 10
66.746488
 20
46.51852
 30
0.0
 42
0.065365
 50
357.0
  0
VERTEX
  8
FEND
 10
66.698941
 20
46.565368
 30
0.0
 42
0.129653
 70
     2
 50
149.145545
  0
SEQEND
  8
FEND
  0
POLYLINE
  8
FEND
 66
     1
 10
0.0
 20
0.0
 30
0.0
  0
VERTEX
  8
FEND
 10
67.339906
 20
46.427472
 30
0.0
 50
357.0
  0
VERTEX
  8
FEND
 10
67.388777
 20
46.467381
 30
0.0
 42
0.129653
 50
357.0
  0
VERTEX
  8
FEND
 10
67.438388
 20
46.569458
 30
0.0
 42
0.006862
 70
     2
 50
78.854455
  0
VERTEX
  8
FEND
 10
67.439653
 20
46.57638
 30
0.0
 50
78.854455
  0
SEQEND
  8
FEND
  0
LINE
  8
FEND
 10
65.304046
 20
46.461524
 30
0.0
 11
65.348448
 21
46.361795
 31
0.0
  0
POLYLINE
  8
MOTOR
 62
     8
 66
     1
 10
0.0
 20
0.0
 30
0.0
  0
VERTEX
  8
MOTOR
 62
     8
 10
58.409946
 20
32.759561
 30
0.0
 42
0.148705
 50
311.999887
  0
VERTEX
  8
MOTOR
 62
     8
 10
58.353676
 20
32.741447
 30
0.0
 42
0.107168
 50
311.999887
  0
SEQEND
  8
MOTOR
  0
POLYLINE
  8
MOTOR
 62
     8
 66
     1
 10
0.0
 20
0.0
 30
0.0
  0
VERTEX
  8
MOTOR
 62
     8
 10
58.399442
 20
32.750103
 30
0.0
 42
0.082253
 50
311.999887
  0
VERTEX
  8
MOTOR
 62
     8
 10
58.38383
 20
32.730544
 30
0.0
 42
0.107168
 50
311.999887
  0
SEQEND
  8
MOTOR
  0
POLYLINE
  8
MOTOR
 62
     8
 66
     1
 10
0.0
 20
0.0
 30
0.0
  0
VERTEX
  8
MOTOR
 62
     8
 10
57.979984
 20
32.305735
 30
0.0
 42
0.000439
 50
311.999887
  0
VERTEX
  8
MOTOR
 62
     8
 10
57.980053
 20
32.305328
 30
0.0
 42
0.077271
 70
     2
 50
279.595383
  0
VERTEX
  8
MOTOR
 62
     8
 10
58.014789
 20
32.201103
 30
0.0
 42
0.064362
 50
279.595383
  0
VERTEX
  8
MOTOR
 62
     8
 10
58.09152
 20
32.090019
 30
0.0
 42
0.064362
 50
311.999887
  0
VERTEX
  8
MOTOR
 62
     8
 10
58.193975
 20
32.002096
 30
0.0
 42
0.077271
 50
311.999887
  0
VERTEX
  8
MOTOR
 62
     8
 10
58.293998
 20
31.956655
 30
0.0
 42
0.107168
 70
     2
 50
344.404391
  0
VERTEX
  8
MOTOR
 62
     8
 10
58.393549
 20
31.950807
 30
0.0
 42
0.145562
 50
344.404391
  0
VERTEX
  8
MOTOR
 62
     8
 10
58.453575
 20
31.979356
 30
0.0
 42
0.145562
 50
311.999887
  0
SEQEND
  8
MOTOR
  0
POLYLINE
  8
MOTOR
 66
     1
 10
0.0
 20
0.0
 30
0.0
  0
VERTEX
  8
MOTOR
 10
58.247321
 20
31.710608
 30
0.0
 42
0.096136
 70
     2
 50
344.404391
  0
VERTEX
  8
MOTOR
 10
58.432107
 20
31.703799
 30
0.0
 42
0.36841
 50
344.404391
  0
VERTEX
  8
MOTOR
 10
58.742144
 20
32.064514
 30
0.0
 42
0.145562
 50
344.404391
  0
SEQEND
  8
MOTOR
  0
POLYLINE
  8
MOTOR
 66
     1
 10
0.0
 20
0.0
 30
0.0
  0
VERTEX
  8
MOTOR
 10
58.662473
 20
33.142357
 30
0.0
 42
0.145562
 50
311.999887
  0
VERTEX
  8
MOTOR
 10
58.605355
 20
33.048915
 30
0.0
 42
0.107168
 50
311.999887
  0
VERTEX
  8
MOTOR
 10
58.599291
 20
32.917335
 30
0.0
 42
0.077271
 70
     2
 50
279.595383
  0
VERTEX
  8
MOTOR
 10
58.641362
 20
32.791103
 30
0.0
 42
0.064362
 50
279.595383
  0
VERTEX
  8
MOTOR
 10
58.729095
 20
32.664091
 30
0.0
 42
0.00089
 50
311.999887
  0
VERTEX
  8
MOTOR
 10
58.730532
 20
32.662501
 30
0.0
 42
0.077271
 50
311.999887
  0
SEQEND
  8
MOTOR
  0
POLYLINE
  8
MOTOR
 66
     1
 10
0.0
 20
0.0
 30
0.0
  0
VERTEX
  8
MOTOR
 10
59.506243
 20
36.498817
 30
0.0
 42
0.037077
 50
305.0
  0
VERTEX
  8
MOTOR
 10
59.307536
 20
36.43781
 30
0.0
 42
0.082233
 70
     2
 50
201.314332
  0
VERTEX
  8
MOTOR
 10
58.773307
 20
36.1204
 30
0.0
 42
0.015588
 50
201.314332
  0
VERTEX
  8
MOTOR
 10
58.653894
 20
36.01324
 30
0.0
 42
0.070564
 50
305.0
  0
SEQEND
  8
MOTOR
  0
LINE
  8
MOTOR
 10
58.322379
 20
35.839157
 30
0.0
 11
57.848975
 21
36.15531
 31
0.0
  0
LINE
  8
MOTOR
 10
58.060297
 20
35.701534
 30
0.0
 11
57.586893
 21
36.017688
 31
0.0
  0
LINE
  8
MOTOR
 10
57.934296
 20
35.635369
 30
0.0
 11
57.460892
 21
35.951523
 31
0.0
  0
LINE
  8
MOTOR
 10
57.682294
 20
35.50304
 30
0.0
 11
57.208891
 21
35.819193
 31
0.0
  0
LINE
  8
MOTOR
  6
CONTINUOUS
 10
55.325788
 20
33.145782
 30
0.0
 11
55.23195
 21
33.005271
 31
0.0
  0
ARC
  8
FAIRING
 10
58.205825
 20
32.768325
 30
0.0
 40
0.1
 50
138.322864
 51
250.120226
  0
ARC
  8
FAIRING
 10
60.854862
 20
35.743929
 30
0.0
 40
0.1
 50
59.578931
 51
138.322864
  0
LINE
  8
FAIRING
 62
     8
 10
60.745219
 20
35.77116
 30
0.0
 11
60.968868
 21
35.323088
 31
0.0
  0
LINE
  8
FAIRING
 62
     8
 10
58.122447
 20
32.825059
 30
0.0
 11
58.593391
 21
32.654768
 31
0.0
  0
ARC
  8
FAIRING
 62
     8
 10
58.652899
 20
32.819339
 30
0.0
 40
0.175
 50
250.120226
 51
318.322864
  0
ARC
  8
FAIRING
 62
     8
 10
60.812289
 20
35.244934
 30
0.0
 40
0.175
 50
318.322864
 51
26.525501
  0
LINE
  8
FAIRING
 62
     8
 10
60.942997
 20
35.128571
 30
0.0
 11
58.783607
 21
32.702976
 31
0.0
  0
ARC
  8
FAIRING
 10
57.21839
 20
33.278028
 30
0.0
 40
0.3
 50
123.187307
 51
253.53758
  0
LINE
  8
FAIRING
 10
57.054177
 20
33.529093
 30
0.0
 11
60.212443
 21
35.594806
 31
0.0
  0
LINE
  8
FAIRING
 10
58.03293
 20
32.724507
 30
0.0
 11
57.133374
 21
32.990326
 31
0.0
  0
LINE
  8
FAIRING
 10
60.905497
 20
35.830162
 30
0.0
 11
65.01809
 21
33.415284
 31
0.0
  0
ARC
  8
FAIRING
 10
58.652899
 20
32.819339
 30
0.0
 40
0.3
 50
250.120226
 51
318.322864
  0
ARC
  8
FAIRING
 10
60.812289
 20
35.244934
 30
0.0
 40
0.3
 50
318.322864
 51
26.525501
  0
LINE
  8
FAIRING
 10
58.171821
 20
32.674285
 30
0.0
 11
58.550885
 21
32.537217
 31
0.0
  0
LINE
  8
FAIRING
 10
60.848698
 20
35.843739
 30
0.0
 11
61.08071
 21
35.378913
 31
0.0
  0
LINE
  8
FAIRING
 10
61.03636
 20
35.045454
 30
0.0
 11
58.87697
 21
32.61986
 31
0.0
  0
LINE
  8
FAIRING
 10
60.780172
 20
35.810422
 30
0.0
 11
58.131135
 21
32.834819
 31
0.0
  0
LINE
  8
FRAME
 10
61.35301
 20
31.238181
 30
0.0
 11
58.456319
 21
26.900716
 31
0.0
  0
LINE
  8
FRAME
 10
59.973188
 20
31.674891
 30
0.0
 11
57.537065
 21
28.027073
 31
0.0
  0
ARC
  8
FAIRING
 10
77.790142
 20
35.746842
 30
0.0
 40
0.25
 50
304.566391
 51
354.8146
  0
ARC
  8
FAIRING
 10
65.133037
 20
47.448435
 30
0.0
 40
1.0
 50
202.650582
 51
225.621988
  0
ARC
  8
FAIRING
 62
     8
 10
68.028523
 20
41.859234
 30
0.0
 40
10.0
 50
25.161863
 51
57.631718
  0
ARC
  8
FAIRING
 10
73.981012
 20
42.612811
 30
0.0
 40
4.0
 50
7.215187
 51
71.920097
  0
ARC
  8
FAIRING
 10
73.926731
 20
43.792356
 30
0.0
 40
4.0
 50
303.878727
 51
354.465482
  0
ARC
  8
FAIRING
 10
70.58211
 20
48.773671
 30
0.0
 40
10.0
 50
269.312481
 51
303.878727
  0
LINE
  8
FAIRING
 10
66.651413
 20
38.82012
 30
0.0
 11
70.462118
 21
38.774391
 31
0.0
  0
ARC
  8
FAIRING
 10
68.028523
 20
41.859234
 30
0.0
 40
10.0
 50
8.90137
 51
25.161863
  0
ARC
  8
FAIRING
 10
65.133037
 20
47.448435
 30
0.0
 40
1.0
 50
225.621988
 51
276.660628
  0
ARC
  8
FAIRING
 10
58.214429
 20
38.561684
 30
0.0
 40
20.0
 50
354.8146
 51
3.561866
  0
LINE
  8
FAIRING
 10
78.009206
 20
42.480497
 30
0.0
 11
78.175795
 21
39.804209
 31
0.0
  0
LINE
  8
FAIRING
 10
78.039119
 20
35.724247
 30
0.0
 11
78.132579
 21
36.754108
 31
0.0
  0
ARC
  8
FAIRING
 10
73.553628
 20
43.047808
 30
0.0
 40
2.25
 50
287.426147
 51
66.751589
  0
ARC
  8
FAIRING
 10
68.028523
 20
41.859234
 30
0.0
 40
10.0
 50
3.56187
 51
7.215187
  0
ARC
  8
FAIRING
 62
     8
 10
64.241735
 20
35.884903
 30
0.0
 40
17.073359
 50
57.631718
 51
72.189423
  0
ARC
  8
FAIRING
 10
69.286763
 20
28.233663
 30
0.0
 40
19.502
 50
66.447264
 51
105.088552
  0
ARC
  8
FAIRING
 62
     8
 10
65.60714
 20
49.174042
 30
0.0
 40
2.0
 50
103.288735
 51
198.610097
  0
ARC
  8
FAIRING
 62
     8
 10
65.133037
 20
47.448435
 30
0.0
 40
1.0
 50
198.610097
 51
202.650582
  0
ARC
  8
FAIRING
 10
69.286763
 20
28.233663
 30
0.0
 40
19.126
 50
71.920097
 51
104.699197
  0
LINE
  8
FAIRING
 62
     8
 10
65.147423
 20
51.12049
 30
0.0
 11
69.463981
 21
52.139985
 31
0.0
  0
LINE
  8
FAIRING
 62
     8
 10
64.185325
 20
47.129309
 30
0.0
 11
63.711716
 21
48.53579
 31
0.0
  0
ARC
  8
FAIRING
 10
67.336813
 20
28.576674
 30
0.0
 40
18.0
 50
66.751589
 51
96.660628
  0
ARC
  8
FAIRING
 10
68.547245
 20
50.051673
 30
0.0
 40
20.0
 50
257.99828
 51
269.358089
  0
ARC
  8
FAIRING
 10
54.642302
 20
33.624326
 30
0.0
 40
0.25
 50
117.704583
 51
252.437554
  0
ARC
  8
FAIRING
 10
62.047911
 20
36.665997
 30
0.0
 40
1.0
 50
103.729341
 51
117.704583
  0
ARC
  8
FAIRING
 10
57.486888
 20
88.051711
 30
0.0
 40
50.0
 50
283.729341
 51
287.426147
  0
LINE
  8
FAIRING
 10
72.4607
 20
40.346523
 30
0.0
 11
74.227449
 21
40.901074
 31
0.0
  0
LINE
  8
FAIRING
 10
61.810576
 20
37.637424
 30
0.0
 11
69.35367
 21
39.480326
 31
0.0
  0
LINE
  8
FAIRING
 10
68.323181
 20
30.052929
 30
0.0
 11
69.940317
 21
30.03481
 31
0.0
  0
LINE
  8
FAIRING
 10
62.354291
 20
30.921278
 30
0.0
 11
64.388424
 21
30.488846
 31
0.0
  0
LINE
  8
FAIRING
 10
77.931982
 20
35.540975
 30
0.0
 11
69.940317
 21
30.03481
 31
0.0
  0
LINE
  8
FAIRING
 10
54.566866
 20
33.385979
 30
0.0
 11
62.354291
 21
30.921278
 31
0.0
  0
LINE
  8
FAIRING
 10
54.526074
 20
33.845665
 30
0.0
 11
61.582998
 21
37.551353
 31
0.0
  0
LINE
  8
FEND
 10
64.237864
 20
49.15124
 30
0.0
 11
64.339548
 21
48.922853
 31
0.0
  0
LINE
  8
FEND
 10
65.564332
 20
49.741821
 30
0.0
 11
65.666016
 21
49.513435
 31
0.0
  0
LINE
  8
FEND
 10
64.237864
 20
49.15124
 30
0.0
 11
65.564332
 21
49.741821
 31
0.0
  0
LINE
  8
FEND
 10
67.300904
 20
46.136448
 30
0.0
 11
67.376978
 21
45.965581
 31
0.0
  0
LINE
  8
FEND
 10
65.755185
 20
45.448249
 30
0.0
 11
65.95464
 21
45.000265
 31
0.0
  0
LINE
  8
FEND
 10
64.229922
 20
48.874045
 30
0.0
 11
65.775641
 21
49.562243
 31
0.0
  0
LINE
  8
FEND
 62
     8
 10
65.188362
 20
46.343062
 30
0.0
 11
65.141431
 21
46.44847
 31
0.0
  0
LINE
  8
MOTOR
 62
     8
 10
53.186042
 20
28.856522
 30
0.0
 11
53.174528
 21
28.636823
 31
0.0
  0
LINE
  8
MOTOR
 62
     8
 10
53.174528
 20
28.636823
 30
0.0
 11
53.584359
 21
28.615345
 31
0.0
  0
LINE
  8
MOTOR
 62
     8
 10
53.186042
 20
28.856522
 30
0.0
 11
53.232422
 21
28.854091
 31
0.0
  0
LINE
  8
MOTOR
 10
53.366159
 20
27.825581
 30
0.0
 11
51.015084
 21
28.256161
 31
0.0
  0
LINE
  8
MOTOR
 10
53.567891
 20
28.52282
 30
0.0
 11
54.22138
 21
28.4613
 31
0.0
  0
ARC
  8
MOTOR
 10
53.360786
 20
27.925436
 30
0.0
 40
0.1
 50
259.460776
 51
349.95588
  0
ARC
  8
MOTOR
 10
53.265897
 20
27.739658
 30
0.0
 40
0.1
 50
79.460776
 51
169.62175
  0
LINE
  8
MOTOR
 10
53.167533
 20
27.757673
 30
0.0
 11
53.148881
 21
27.655832
 31
0.0
  0
LINE
  8
MOTOR
 10
54.439932
 20
28.374496
 30
0.0
 11
54.271354
 21
27.44557
 31
0.0
  0
LINE
  8
MOTOR
 10
53.459253
 20
27.907996
 30
0.0
 11
53.600713
 21
28.707815
 31
0.0
  0
LINE
  8
MOTOR
 10
53.284187
 20
27.837971
 30
0.0
 11
53.342495
 21
27.827123
 31
0.0
  0
LINE
  8
MOTOR
 10
54.503517
 20
27.312293
 30
0.0
 11
54.296197
 21
27.004752
 31
0.0
  0
ARC
  8
MOTOR
 10
53.365795
 20
27.769733
 30
0.0
 40
0.245
 50
169.62175
 51
259.62175
  0
ARC
  8
MOTOR
 10
54.113361
 20
27.632822
 30
0.0
 40
0.245
 50
259.62175
 51
349.62175
  0
LINE
  8
MOTOR
 10
54.364261
 20
27.642786
 30
0.0
 11
54.309278
 21
27.652856
 31
0.0
  0
LINE
  8
MOTOR
 10
54.503517
 20
27.312293
 30
0.0
 11
49.653361
 21
28.20056
 31
0.0
  0
LINE
  8
MOTOR
 10
53.134711
 20
27.867969
 30
0.0
 11
53.124803
 21
27.813868
 31
0.0
  0
LINE
  8
MOTOR
 10
54.364261
 20
27.642786
 30
0.0
 11
54.354353
 21
27.588686
 31
0.0
  0
ARC
  8
RWHEEL
 62
     8
 10
21.728523
 20
20.961851
 30
0.0
 40
10.179128
 50
73.051443
 51
1.43812
  0
ARC
  8
RWHEEL
 10
21.728523
 20
20.961851
 30
0.0
 40
12.200676
 50
69.996838
 51
355.740799
  0
ARC
  8
RWHEEL
 10
21.728523
 20
20.961851
 30
0.0
 40
12.200676
 50
65.794784
 51
68.224147
  0
ARC
  8
EXHAUST
 10
25.726124
 20
31.252316
 30
0.0
 40
0.01
 50
152.558552
 51
310.252662
  0
LINE
  8
EXHAUST
 10
25.117962
 20
30.916555
 30
0.0
 11
26.750023
 21
34.059552
 31
0.0
  0
LINE
  8
EXHAUST
 10
25.717249
 20
31.256925
 30
0.0
 11
27.183448
 21
34.080507
 31
0.0
  0
LINE
  8
EXHAUST
 10
25.732586
 20
31.244684
 30
0.0
 11
29.197066
 21
34.17786
 31
0.0
  0
LINE
  8
EXHAUST
 10
25.533574
 20
30.584842
 30
0.0
 11
29.812566
 21
34.207618
 31
0.0
  0
CIRCLE
  8
EXHAUST
 10
25.089191
 20
30.454284
 30
0.0
 40
0.463165
  0
INSERT
  8
EXHAUST
  2
HEXHEAD
 10
25.089191
 20
30.454284
 30
0.0
 41
0.5
 42
0.5
 50
338.553502
 43
0.5
  0
LINE
  8
EXHAUST
 10
25.481172
 20
30.207559
 30
0.0
 11
25.321605
 21
29.517737
 31
0.0
  0
LINE
  8
EXHAUST
 10
24.301097
 20
30.318696
 30
0.0
 11
24.679887
 21
30.67106
 31
0.0
  0
ARC
  8
RWHEEL
 62
     1
 10
21.728523
 20
20.961851
 30
0.0
 40
9.15
 50
41.256708
 51
63.721825
  0
LINE
  8
EXHAUST
 10
24.2743
 20
30.321674
 30
0.0
 11
22.818906
 21
30.427381
 31
0.0
  0
LINE
  8
EXHAUST
 10
22.818906
 20
30.427381
 30
0.0
 11
21.558319
 21
28.641396
 31
0.0
  0
LINE
  8
EXHAUST
 10
39.824881
 20
17.960127
 30
0.0
 11
39.210953
 21
16.96587
 31
0.0
  0
LINE
  8
EXHAUST
 10
51.457561
 20
16.475083
 30
0.0
 11
51.492516
 21
15.690454
 31
0.0
  0
ARC
  8
EXHAUST
 62
     8
 10
50.559273
 20
16.435612
 30
0.0
 40
0.02923
 50
192.986963
 51
12.988396
  0
LINE
  8
EXHAUST
 62
     8
 10
50.551965
 20
16.597363
 30
0.0
 11
50.587756
 21
16.442181
 31
0.0
  0
LINE
  8
EXHAUST
 62
     8
 10
50.495595
 20
16.581643
 30
0.0
 11
50.530791
 21
16.429043
 31
0.0
  0
LINE
  8
EXHAUST
 62
     8
 10
50.607953
 20
16.668354
 30
0.0
 11
50.588403
 21
16.43319
 31
0.0
  0
LINE
  8
EXHAUST
 62
     8
 10
50.565212
 20
16.859857
 30
0.0
 11
50.544912
 21
16.615673
 31
0.0
  0
ARC
  8
EXHAUST
 62
     8
 10
50.689468
 20
16.444985
 30
0.0
 40
0.02923
 50
192.986963
 51
12.988396
  0
ARC
  8
EXHAUST
 62
     8
 10
50.594341
 20
16.857435
 30
0.0
 40
0.02923
 50
12.987507
 51
192.987507
  0
LINE
  8
EXHAUST
 62
     8
 10
50.622824
 20
16.864004
 30
0.0
 11
50.717951
 21
16.451554
 31
0.0
  0
LINE
  8
EXHAUST
 62
     8
 10
50.565859
 20
16.850866
 30
0.0
 11
50.660986
 21
16.438416
 31
0.0
  0
LINE
  8
EXHAUST
 62
     8
 10
50.738148
 20
16.677727
 30
0.0
 11
50.718598
 21
16.442563
 31
0.0
  0
LINE
  8
EXHAUST
 62
     8
 10
50.695407
 20
16.86923
 30
0.0
 11
50.675857
 21
16.634066
 31
0.0
  0
ARC
  8
EXHAUST
 62
     8
 10
50.724537
 20
16.866808
 30
0.0
 40
0.02923
 50
12.987507
 51
192.987507
  0
LINE
  8
EXHAUST
 62
     8
 10
50.753019
 20
16.873377
 30
0.0
 11
50.848146
 21
16.460926
 31
0.0
  0
LINE
  8
EXHAUST
 62
     8
 10
50.696054
 20
16.860239
 30
0.0
 11
50.791181
 21
16.447788
 31
0.0
  0
LINE
  8
EXHAUST
 62
     8
 10
50.826249
 20
16.869612
 30
0.0
 11
50.921376
 21
16.457162
 31
0.0
  0
LINE
  8
EXHAUST
 62
     8
 10
50.883214
 20
16.88275
 30
0.0
 11
50.978341
 21
16.4703
 31
0.0
  0
ARC
  8
EXHAUST
 62
     8
 10
50.854732
 20
16.876181
 30
0.0
 40
0.02923
 50
12.987507
 51
192.987507
  0
LINE
  8
EXHAUST
 62
     8
 10
50.868343
 20
16.6871
 30
0.0
 11
50.848793
 21
16.451936
 31
0.0
  0
LINE
  8
EXHAUST
 62
     8
 10
50.825602
 20
16.878603
 30
0.0
 11
50.806052
 21
16.643439
 31
0.0
  0
ARC
  8
EXHAUST
 62
     8
 10
50.819663
 20
16.454358
 30
0.0
 40
0.02923
 50
192.986963
 51
12.988396
  0
LINE
  8
EXHAUST
 62
     8
 10
50.956444
 20
16.878986
 30
0.0
 11
51.051571
 21
16.466535
 31
0.0
  0
LINE
  8
EXHAUST
 62
     8
 10
51.013409
 20
16.892124
 30
0.0
 11
51.108536
 21
16.479673
 31
0.0
  0
ARC
  8
EXHAUST
 62
     8
 10
50.984927
 20
16.885555
 30
0.0
 40
0.02923
 50
12.987507
 51
192.987507
  0
LINE
  8
EXHAUST
 62
     8
 10
50.998538
 20
16.696474
 30
0.0
 11
50.978988
 21
16.46131
 31
0.0
  0
LINE
  8
EXHAUST
 62
     8
 10
50.955797
 20
16.887976
 30
0.0
 11
50.936247
 21
16.652813
 31
0.0
  0
ARC
  8
EXHAUST
 62
     8
 10
50.949858
 20
16.463731
 30
0.0
 40
0.02923
 50
192.986963
 51
12.988396
  0
LINE
  8
EXHAUST
 62
     8
 10
51.086639
 20
16.888359
 30
0.0
 11
51.181766
 21
16.475908
 31
0.0
  0
LINE
  8
EXHAUST
 62
     8
 10
51.143604
 20
16.901497
 30
0.0
 11
51.238731
 21
16.489047
 31
0.0
  0
ARC
  8
EXHAUST
 62
     8
 10
51.115122
 20
16.894928
 30
0.0
 40
0.02923
 50
12.987507
 51
192.987507
  0
LINE
  8
EXHAUST
 62
     8
 10
51.128733
 20
16.705847
 30
0.0
 11
51.109183
 21
16.470683
 31
0.0
  0
LINE
  8
EXHAUST
 62
     8
 10
51.085992
 20
16.89735
 30
0.0
 11
51.066442
 21
16.662186
 31
0.0
  0
ARC
  8
EXHAUST
 62
     8
 10
51.080053
 20
16.473105
 30
0.0
 40
0.02923
 50
192.986963
 51
12.988396
  0
LINE
  8
EXHAUST
 62
     8
 10
51.216834
 20
16.897732
 30
0.0
 11
51.311961
 21
16.485282
 31
0.0
  0
LINE
  8
EXHAUST
 62
     8
 10
51.273799
 20
16.910871
 30
0.0
 11
51.368926
 21
16.49842
 31
0.0
  0
ARC
  8
EXHAUST
 62
     8
 10
51.245317
 20
16.904301
 30
0.0
 40
0.02923
 50
12.987507
 51
192.987507
  0
LINE
  8
EXHAUST
 62
     8
 10
51.258928
 20
16.71522
 30
0.0
 11
51.239378
 21
16.480057
 31
0.0
  0
LINE
  8
EXHAUST
 62
     8
 10
51.216187
 20
16.906723
 30
0.0
 11
51.196637
 21
16.671559
 31
0.0
  0
ARC
  8
EXHAUST
 62
     8
 10
51.210248
 20
16.482478
 30
0.0
 40
0.02923
 50
192.986963
 51
12.988396
  0
LINE
  8
EXHAUST
 62
     8
 10
51.347029
 20
16.907106
 30
0.0
 11
51.442156
 21
16.494655
 31
0.0
  0
LINE
  8
EXHAUST
 62
     8
 10
51.403994
 20
16.920244
 30
0.0
 11
51.499121
 21
16.507794
 31
0.0
  0
ARC
  8
EXHAUST
 62
     8
 10
51.375512
 20
16.913675
 30
0.0
 40
0.02923
 50
12.987507
 51
192.987507
  0
LINE
  8
EXHAUST
 62
     8
 10
51.389123
 20
16.724594
 30
0.0
 11
51.369573
 21
16.48943
 31
0.0
  0
LINE
  8
EXHAUST
 62
     8
 10
51.346382
 20
16.916097
 30
0.0
 11
51.326832
 21
16.680933
 31
0.0
  0
ARC
  8
EXHAUST
 62
     8
 10
51.340443
 20
16.491852
 30
0.0
 40
0.02923
 50
192.986963
 51
12.988396
  0
LINE
  8
EXHAUST
 62
     8
 10
51.477224
 20
16.916479
 30
0.0
 11
51.572351
 21
16.504029
 31
0.0
  0
LINE
  8
EXHAUST
 62
     8
 10
51.534189
 20
16.929617
 30
0.0
 11
51.629316
 21
16.517167
 31
0.0
  0
ARC
  8
EXHAUST
 62
     8
 10
51.505707
 20
16.923048
 30
0.0
 40
0.02923
 50
12.987507
 51
192.987507
  0
LINE
  8
EXHAUST
 62
     8
 10
51.519318
 20
16.733967
 30
0.0
 11
51.499768
 21
16.498803
 31
0.0
  0
LINE
  8
EXHAUST
 62
     8
 10
51.476577
 20
16.92547
 30
0.0
 11
51.457027
 21
16.690306
 31
0.0
  0
ARC
  8
EXHAUST
 62
     8
 10
51.470638
 20
16.501225
 30
0.0
 40
0.02923
 50
192.986963
 51
12.988396
  0
ARC
  8
EXHAUST
 62
     8
 10
51.600833
 20
16.510599
 30
0.0
 40
0.02923
 50
192.986963
 51
12.988396
  0
LINE
  8
EXHAUST
 62
     8
 10
51.649513
 20
16.743341
 30
0.0
 11
51.629963
 21
16.508177
 31
0.0
  0
LINE
  8
EXHAUST
 62
     8
 10
51.606772
 20
16.934843
 30
0.0
 11
51.587222
 21
16.69968
 31
0.0
  0
LINE
  8
EXHAUST
 62
     8
 10
51.607419
 20
16.925853
 30
0.0
 11
51.702546
 21
16.513402
 31
0.0
  0
LINE
  8
EXHAUST
 62
     8
 10
51.664384
 20
16.938991
 30
0.0
 11
51.759511
 21
16.52654
 31
0.0
  0
ARC
  8
EXHAUST
 62
     8
 10
51.635902
 20
16.932422
 30
0.0
 40
0.02923
 50
12.987507
 51
192.987507
  0
ARC
  8
EXHAUST
 62
     8
 10
51.731028
 20
16.519972
 30
0.0
 40
0.02923
 50
192.986963
 51
12.988396
  0
LINE
  8
EXHAUST
 62
     8
 10
51.779708
 20
16.752714
 30
0.0
 11
51.760158
 21
16.51755
 31
0.0
  0
LINE
  8
EXHAUST
 62
     8
 10
51.736967
 20
16.944217
 30
0.0
 11
51.717417
 21
16.709053
 31
0.0
  0
LINE
  8
EXHAUST
 62
     8
 10
51.737614
 20
16.935226
 30
0.0
 11
51.832741
 21
16.522775
 31
0.0
  0
LINE
  8
EXHAUST
 62
     8
 10
51.794579
 20
16.948364
 30
0.0
 11
51.889706
 21
16.535914
 31
0.0
  0
ARC
  8
EXHAUST
 62
     8
 10
51.766097
 20
16.941795
 30
0.0
 40
0.02923
 50
12.987507
 51
192.987507
  0
ARC
  8
EXHAUST
 62
     8
 10
51.861223
 20
16.529345
 30
0.0
 40
0.02923
 50
192.986963
 51
12.988396
  0
LINE
  8
EXHAUST
 62
     8
 10
51.909903
 20
16.762087
 30
0.0
 11
51.890353
 21
16.526924
 31
0.0
  0
LINE
  8
EXHAUST
 62
     8
 10
51.867162
 20
16.95359
 30
0.0
 11
51.847612
 21
16.718426
 31
0.0
  0
LINE
  8
EXHAUST
 62
     8
 10
51.867809
 20
16.944599
 30
0.0
 11
51.962936
 21
16.532149
 31
0.0
  0
LINE
  8
EXHAUST
 62
     8
 10
51.924774
 20
16.957738
 30
0.0
 11
52.019901
 21
16.545287
 31
0.0
  0
ARC
  8
EXHAUST
 62
     8
 10
51.896292
 20
16.951169
 30
0.0
 40
0.02923
 50
12.987507
 51
192.987507
  0
ARC
  8
EXHAUST
 62
     8
 10
51.991418
 20
16.538719
 30
0.0
 40
0.02923
 50
192.986963
 51
12.988396
  0
LINE
  8
EXHAUST
 62
     8
 10
52.040098
 20
16.771461
 30
0.0
 11
52.020548
 21
16.536297
 31
0.0
  0
LINE
  8
EXHAUST
 62
     8
 10
51.997357
 20
16.962964
 30
0.0
 11
51.977807
 21
16.7278
 31
0.0
  0
LINE
  8
EXHAUST
 62
     8
 10
51.998004
 20
16.953973
 30
0.0
 11
52.093131
 21
16.541522
 31
0.0
  0
LINE
  8
EXHAUST
 62
     8
 10
52.054969
 20
16.967111
 30
0.0
 11
52.150096
 21
16.554661
 31
0.0
  0
ARC
  8
EXHAUST
 62
     8
 10
52.026487
 20
16.960542
 30
0.0
 40
0.02923
 50
12.987507
 51
192.987507
  0
ARC
  8
EXHAUST
 62
     8
 10
52.121613
 20
16.548092
 30
0.0
 40
0.02923
 50
192.986963
 51
12.988396
  0
LINE
  8
EXHAUST
 62
     8
 10
52.171043
 20
16.789854
 30
0.0
 11
52.150743
 21
16.54567
 31
0.0
  0
LINE
  8
EXHAUST
 62
     8
 10
52.127552
 20
16.972337
 30
0.0
 11
52.108002
 21
16.737173
 31
0.0
  0
LINE
  8
EXHAUST
 62
     8
 10
52.128199
 20
16.963346
 30
0.0
 11
52.16399
 21
16.808165
 31
0.0
  0
LINE
  8
EXHAUST
 62
     8
 10
52.185164
 20
16.976484
 30
0.0
 11
52.22036
 21
16.823884
 31
0.0
  0
ARC
  8
EXHAUST
 62
     8
 10
52.156682
 20
16.969915
 30
0.0
 40
0.02923
 50
12.987507
 51
192.987507
  0
LINE
  8
EXHAUST
 62
     8
 10
52.251746
 20
16.800704
 30
0.0
 11
52.773768
 21
16.838287
 31
0.0
  0
LINE
  8
EXHAUST
 62
     8
 10
52.246541
 20
16.742179
 30
0.0
 11
52.777933
 21
16.780436
 31
0.0
  0
LINE
  8
EXHAUST
 62
     8
 10
49.938022
 20
16.625091
 30
0.0
 11
50.469413
 21
16.663349
 31
0.0
  0
LINE
  8
EXHAUST
 62
     8
 10
49.942187
 20
16.567241
 30
0.0
 11
50.464209
 21
16.604824
 31
0.0
  0
ARC
  8
EXHAUST
 62
     8
 10
52.249592
 20
16.830626
 30
0.0
 40
0.03
 50
192.987507
 51
274.117913
  0
ARC
  8
EXHAUST
 62
     8
 10
52.249592
 20
16.830626
 30
0.0
 40
0.0885
 50
192.987507
 51
274.117913
  0
ARC
  8
EXHAUST
 62
     8
 10
52.77585
 20
16.809361
 30
0.0
 40
0.029
 50
274.11866
 51
94.117165
  0
ARC
  8
EXHAUST
 62
     8
 10
50.466363
 20
16.574901
 30
0.0
 40
0.03
 50
12.987507
 51
94.117913
  0
ARC
  8
EXHAUST
 62
     8
 10
50.466363
 20
16.574901
 30
0.0
 40
0.0885
 50
12.987507
 51
94.117913
  0
ARC
  8
EXHAUST
 62
     8
 10
49.940105
 20
16.596166
 30
0.0
 40
0.029
 50
94.117059
 51
274.118766
  0
LINE
  8
EXHAUST
 62
     8
 10
52.751699
 20
16.967016
 30
0.0
 11
53.091222
 21
16.99146
 31
0.0
  0
LINE
  8
EXHAUST
 62
     8
 10
52.754866
 20
16.909094
 30
0.0
 11
53.095386
 21
16.93361
 31
0.0
  0
ARC
  8
EXHAUST
 62
     8
 10
53.093304
 20
16.962535
 30
0.0
 40
0.029
 50
274.11866
 51
94.117165
  0
ARC
  8
EXHAUST
 62
     8
 10
53.111972
 20
16.703242
 30
0.0
 40
0.029
 50
274.11866
 51
94.117165
  0
LINE
  8
EXHAUST
 62
     8
 10
52.769369
 20
16.707652
 30
0.0
 11
53.109889
 21
16.732167
 31
0.0
  0
LINE
  8
EXHAUST
 62
     8
 10
52.774532
 20
16.649873
 30
0.0
 11
53.114054
 21
16.674317
 31
0.0
  0
LINE
  8
EXHAUST
 62
     8
 10
52.67937
 20
16.732252
 30
0.0
 11
52.676427
 21
16.773128
 31
0.0
  0
LINE
  8
EXHAUST
 62
     8
 10
52.737292
 20
16.73542
 30
0.0
 11
52.734278
 21
16.777293
 31
0.0
  0
ARC
  8
EXHAUST
 62
     8
 10
52.767215
 20
16.737574
 30
0.0
 40
0.03
 50
184.117913
 51
274.117913
  0
ARC
  8
EXHAUST
 62
     8
 10
52.757021
 20
16.879171
 30
0.0
 40
0.03
 50
94.117913
 51
184.117913
  0
ARC
  8
EXHAUST
 62
     8
 10
52.75809
 20
16.878246
 30
0.0
 40
0.089
 50
94.117913
 51
184.117913
  0
ARC
  8
EXHAUST
 62
     8
 10
52.768141
 20
16.738643
 30
0.0
 40
0.089
 50
184.117913
 51
274.117913
  0
LINE
  8
EXHAUST
 62
     8
 10
52.672263
 20
16.830979
 30
0.0
 11
52.66932
 21
16.871855
 31
0.0
  0
LINE
  8
EXHAUST
 62
     8
 10
52.730113
 20
16.835144
 30
0.0
 11
52.727098
 21
16.877017
 31
0.0
  0
LINE
  8
EXHAUST
 62
     8
 10
49.985842
 20
16.570384
 30
0.0
 11
49.988857
 21
16.52851
 31
0.0
  0
LINE
  8
EXHAUST
 62
     8
 10
50.043692
 20
16.574549
 30
0.0
 11
50.046635
 21
16.533673
 31
0.0
  0
ARC
  8
EXHAUST
 62
     8
 10
49.947814
 20
16.666884
 30
0.0
 40
0.089
 50
4.117913
 51
94.117913
  0
ARC
  8
EXHAUST
 62
     8
 10
49.957865
 20
16.527281
 30
0.0
 40
0.089
 50
274.117913
 51
4.117913
  0
ARC
  8
EXHAUST
 62
     8
 10
49.958934
 20
16.526356
 30
0.0
 40
0.03
 50
274.117913
 51
4.117913
  0
ARC
  8
EXHAUST
 62
     8
 10
49.94874
 20
16.667953
 30
0.0
 40
0.03
 50
4.117913
 51
94.117913
  0
LINE
  8
EXHAUST
 62
     8
 10
49.978663
 20
16.670108
 30
0.0
 11
49.981677
 21
16.628234
 31
0.0
  0
LINE
  8
EXHAUST
 62
     8
 10
50.036585
 20
16.673275
 30
0.0
 11
50.039527
 21
16.632399
 31
0.0
  0
LINE
  8
EXHAUST
 62
     8
 10
49.941423
 20
16.755654
 30
0.0
 11
49.601901
 21
16.73121
 31
0.0
  0
LINE
  8
EXHAUST
 62
     8
 10
49.946586
 20
16.697876
 30
0.0
 11
49.606066
 21
16.67336
 31
0.0
  0
ARC
  8
EXHAUST
 62
     8
 10
49.603983
 20
16.702285
 30
0.0
 40
0.029
 50
94.11866
 51
274.117165
  0
ARC
  8
EXHAUST
 62
     8
 10
49.622651
 20
16.442992
 30
0.0
 40
0.029
 50
94.11866
 51
274.117165
  0
LINE
  8
EXHAUST
 62
     8
 10
49.961089
 20
16.496433
 30
0.0
 11
49.620568
 21
16.471918
 31
0.0
  0
LINE
  8
EXHAUST
 62
     8
 10
49.964256
 20
16.438511
 30
0.0
 11
49.624733
 21
16.414067
 31
0.0
  0
LINE
  8
EXHAUST
 62
     8
 10
38.41528
 20
18.32816
 30
0.0
 11
38.093776
 21
18.44
 31
0.0
  0
LINE
  8
EXHAUST
 62
     8
 10
38.435281
 20
18.382611
 30
0.0
 11
38.112832
 21
18.49478
 31
0.0
  0
ARC
  8
EXHAUST
 62
     8
 10
38.103304
 20
18.46739
 30
0.0
 40
0.029
 50
70.819752
 51
250.818256
  0
ARC
  8
EXHAUST
 62
     8
 10
38.188716
 20
18.712922
 30
0.0
 40
0.029
 50
70.819752
 51
250.818256
  0
LINE
  8
EXHAUST
 62
     8
 10
38.501637
 20
18.573363
 30
0.0
 11
38.179188
 21
18.685532
 31
0.0
  0
LINE
  8
EXHAUST
 62
     8
 10
38.519749
 20
18.628472
 30
0.0
 11
38.198244
 21
18.740312
 31
0.0
  0
LINE
  8
EXHAUST
 62
     8
 10
38.574566
 20
18.515171
 30
0.0
 11
38.561102
 21
18.476465
 31
0.0
  0
LINE
  8
EXHAUST
 62
     8
 10
38.520115
 20
18.535172
 30
0.0
 11
38.506322
 21
18.495521
 31
0.0
  0
ARC
  8
EXHAUST
 62
     8
 10
38.49178
 20
18.545029
 30
0.0
 40
0.03
 50
340.819004
 51
70.819004
  0
ARC
  8
EXHAUST
 62
     8
 10
38.445138
 20
18.410946
 30
0.0
 40
0.03
 50
250.819004
 51
340.819004
  0
ARC
  8
EXHAUST
 62
     8
 10
38.444522
 20
18.412219
 30
0.0
 40
0.089
 50
250.819004
 51
340.819004
  0
ARC
  8
EXHAUST
 62
     8
 10
38.490507
 20
18.544413
 30
0.0
 40
0.089
 50
340.819004
 51
70.819004
  0
LINE
  8
EXHAUST
 62
     8
 10
38.542046
 20
18.421684
 30
0.0
 11
38.528581
 21
18.382978
 31
0.0
  0
LINE
  8
EXHAUST
 62
     8
 10
38.487265
 20
18.440741
 30
0.0
 11
38.473472
 21
18.401089
 31
0.0
  0
LINE
  8
EXHAUST
 62
     8
 10
41.112472
 20
17.598474
 30
0.0
 11
41.126265
 21
17.638126
 31
0.0
  0
LINE
  8
EXHAUST
 62
     8
 10
41.057691
 20
17.617531
 30
0.0
 11
41.071156
 21
17.656237
 31
0.0
  0
ARC
  8
EXHAUST
 62
     8
 10
41.10923
 20
17.494802
 30
0.0
 40
0.089
 50
160.819004
 51
250.819004
  0
ARC
  8
EXHAUST
 62
     8
 10
41.155215
 20
17.626996
 30
0.0
 40
0.089
 50
70.819004
 51
160.819004
  0
ARC
  8
EXHAUST
 62
     8
 10
41.154599
 20
17.628269
 30
0.0
 40
0.03
 50
70.819004
 51
160.819004
  0
ARC
  8
EXHAUST
 62
     8
 10
41.107957
 20
17.494186
 30
0.0
 40
0.03
 50
160.819004
 51
250.819004
  0
LINE
  8
EXHAUST
 62
     8
 10
41.079622
 20
17.504043
 30
0.0
 11
41.093415
 21
17.543694
 31
0.0
  0
LINE
  8
EXHAUST
 62
     8
 10
41.025171
 20
17.524044
 30
0.0
 11
41.038635
 21
17.56275
 31
0.0
  0
LINE
  8
EXHAUST
 62
     8
 10
41.079988
 20
17.410743
 30
0.0
 11
41.401493
 21
17.298903
 31
0.0
  0
LINE
  8
EXHAUST
 62
     8
 10
41.0981
 20
17.465852
 30
0.0
 11
41.420549
 21
17.353683
 31
0.0
  0
ARC
  8
EXHAUST
 62
     8
 10
41.411021
 20
17.326293
 30
0.0
 40
0.029
 50
250.819752
 51
70.818256
  0
ARC
  8
EXHAUST
 62
     8
 10
41.496433
 20
17.571825
 30
0.0
 40
0.029
 50
250.819752
 51
70.818256
  0
LINE
  8
EXHAUST
 62
     8
 10
41.164456
 20
17.656604
 30
0.0
 11
41.486905
 21
17.544435
 31
0.0
  0
LINE
  8
EXHAUST
 62
     8
 10
41.184457
 20
17.711055
 30
0.0
 11
41.505961
 21
17.599215
 31
0.0
  0
ARC
  8
EXHAUST
 62
     8
 10
38.455455
 20
18.482511
 30
0.0
 40
0.029
 50
70.818151
 51
250.819857
  0
ARC
  8
EXHAUST
 62
     8
 10
38.930388
 20
18.25483
 30
0.0
 40
0.0885
 50
349.688598
 51
70.819004
  0
ARC
  8
EXHAUST
 62
     8
 10
38.930388
 20
18.25483
 30
0.0
 40
0.03
 50
349.688598
 51
70.819004
  0
ARC
  8
EXHAUST
 62
     8
 10
41.144282
 20
17.556704
 30
0.0
 40
0.029
 50
250.819752
 51
70.818256
  0
ARC
  8
EXHAUST
 62
     8
 10
40.669349
 20
17.784385
 30
0.0
 40
0.0885
 50
169.688598
 51
250.819004
  0
ARC
  8
EXHAUST
 62
     8
 10
40.669349
 20
17.784385
 30
0.0
 40
0.03
 50
169.688598
 51
250.819004
  0
LINE
  8
EXHAUST
 62
     8
 10
38.445927
 20
18.455121
 30
0.0
 11
38.940245
 21
18.283165
 31
0.0
  0
LINE
  8
EXHAUST
 62
     8
 10
38.464983
 20
18.509901
 30
0.0
 11
38.968174
 21
18.334859
 31
0.0
  0
LINE
  8
EXHAUST
 62
     8
 10
40.631563
 20
17.704356
 30
0.0
 11
41.134754
 21
17.529314
 31
0.0
  0
LINE
  8
EXHAUST
 62
     8
 10
40.659492
 20
17.75605
 30
0.0
 11
41.15381
 21
17.584094
 31
0.0
  0
ARC
  8
EXHAUST
 62
     8
 10
40.639107
 20
17.949064
 30
0.0
 40
0.02923
 50
349.688598
 51
169.688598
  0
LINE
  8
EXHAUST
 62
     8
 10
40.667865
 20
17.943832
 30
0.0
 11
40.639833
 21
17.789755
 31
0.0
  0
LINE
  8
EXHAUST
 62
     8
 10
40.610349
 20
17.954296
 30
0.0
 11
40.581843
 21
17.797613
 31
0.0
  0
LINE
  8
EXHAUST
 62
     8
 10
40.613311
 20
17.96281
 30
0.0
 11
40.502341
 21
17.754556
 31
0.0
  0
LINE
  8
EXHAUST
 62
     8
 10
40.581079
 20
17.778006
 30
0.0
 11
40.465852
 21
17.561764
 31
0.0
  0
ARC
  8
EXHAUST
 62
     8
 10
40.440056
 20
17.575509
 30
0.0
 40
0.02923
 50
169.688054
 51
349.689487
  0
ARC
  8
EXHAUST
 62
     8
 10
40.515822
 20
17.991951
 30
0.0
 40
0.02923
 50
349.688598
 51
169.688598
  0
LINE
  8
EXHAUST
 62
     8
 10
40.54458
 20
17.986719
 30
0.0
 11
40.468814
 21
17.570277
 31
0.0
  0
LINE
  8
EXHAUST
 62
     8
 10
40.487064
 20
17.997183
 30
0.0
 11
40.411298
 21
17.580741
 31
0.0
  0
LINE
  8
EXHAUST
 62
     8
 10
40.490025
 20
18.005697
 30
0.0
 11
40.379056
 21
17.797442
 31
0.0
  0
LINE
  8
EXHAUST
 62
     8
 10
40.453537
 20
17.812905
 30
0.0
 11
40.342567
 21
17.60465
 31
0.0
  0
ARC
  8
EXHAUST
 62
     8
 10
40.31677
 20
17.618396
 30
0.0
 40
0.02923
 50
169.688054
 51
349.689487
  0
ARC
  8
EXHAUST
 62
     8
 10
40.392536
 20
18.034838
 30
0.0
 40
0.02923
 50
349.688598
 51
169.688598
  0
LINE
  8
EXHAUST
 62
     8
 10
40.421294
 20
18.029605
 30
0.0
 11
40.345528
 21
17.613163
 31
0.0
  0
LINE
  8
EXHAUST
 62
     8
 10
40.363778
 20
18.04007
 30
0.0
 11
40.288012
 21
17.623628
 31
0.0
  0
LINE
  8
EXHAUST
 62
     8
 10
40.36674
 20
18.048583
 30
0.0
 11
40.25577
 21
17.840329
 31
0.0
  0
LINE
  8
EXHAUST
 62
     8
 10
40.330251
 20
17.855791
 30
0.0
 11
40.219281
 21
17.647537
 31
0.0
  0
ARC
  8
EXHAUST
 62
     8
 10
40.193485
 20
17.661283
 30
0.0
 40
0.02923
 50
169.688054
 51
349.689487
  0
ARC
  8
EXHAUST
 62
     8
 10
40.269251
 20
18.077724
 30
0.0
 40
0.02923
 50
349.688598
 51
169.688598
  0
LINE
  8
EXHAUST
 62
     8
 10
40.298009
 20
18.072492
 30
0.0
 11
40.222243
 21
17.65605
 31
0.0
  0
LINE
  8
EXHAUST
 62
     8
 10
40.240493
 20
18.082956
 30
0.0
 11
40.164727
 21
17.666514
 31
0.0
  0
LINE
  8
EXHAUST
 62
     8
 10
40.243454
 20
18.09147
 30
0.0
 11
40.132484
 21
17.883216
 31
0.0
  0
LINE
  8
EXHAUST
 62
     8
 10
40.206966
 20
17.898678
 30
0.0
 11
40.095996
 21
17.690424
 31
0.0
  0
ARC
  8
EXHAUST
 62
     8
 10
40.070199
 20
17.70417
 30
0.0
 40
0.02923
 50
169.688054
 51
349.689487
  0
ARC
  8
EXHAUST
 62
     8
 10
40.145965
 20
18.120611
 30
0.0
 40
0.02923
 50
349.688598
 51
169.688598
  0
LINE
  8
EXHAUST
 62
     8
 10
40.174723
 20
18.115379
 30
0.0
 11
40.098957
 21
17.698937
 31
0.0
  0
LINE
  8
EXHAUST
 62
     8
 10
40.117207
 20
18.125843
 30
0.0
 11
40.041441
 21
17.709401
 31
0.0
  0
LINE
  8
EXHAUST
 62
     8
 10
40.120169
 20
18.134357
 30
0.0
 11
40.009199
 21
17.926102
 31
0.0
  0
LINE
  8
EXHAUST
 62
     8
 10
40.08368
 20
17.941565
 30
0.0
 11
39.97271
 21
17.733311
 31
0.0
  0
ARC
  8
EXHAUST
 62
     8
 10
39.946914
 20
17.747056
 30
0.0
 40
0.02923
 50
169.688054
 51
349.689487
  0
LINE
  8
EXHAUST
 10
51.403505
 20
17.688472
 30
0.0
 11
51.445805
 21
16.738958
 31
0.0
  0
LINE
  8
EXHAUST
 10
40.37906
 20
18.857622
 30
0.0
 11
39.909122
 21
18.096557
 31
0.0
  0
ARC
  8
EXHAUST
 10
52.491688
 20
21.740918
 30
0.0
 40
4.0
 50
272.550823
 51
315.782793
  0
LINE
  8
EXHAUST
 10
56.148586
 20
27.355982
 30
0.0
 11
57.2764
 21
25.974273
 31
0.0
  0
ARC
  8
EXHAUST
 10
54.211856
 20
25.775135
 30
0.0
 40
2.5
 50
39.2229
 51
68.565935
  0
LINE
  8
EXHAUST
 10
52.537908
 20
29.129936
 30
0.0
 11
55.125432
 21
28.102232
 31
0.0
  0
ARC
  8
EXHAUST
 10
54.332757
 20
21.482087
 30
0.0
 40
2.5
 50
315.782793
 51
340.92157
  0
LINE
  8
EXHAUST
 10
56.12451
 20
19.738636
 30
0.0
 11
55.358493
 21
18.951397
 31
0.0
  0
LINE
  8
EXHAUST
 10
57.702351
 20
23.57627
 30
0.0
 11
56.695437
 21
20.664932
 31
0.0
  0
ARC
  8
EXHAUST
 10
55.339671
 20
24.393426
 30
0.0
 40
2.5
 50
340.92157
 51
39.2229
  0
ARC
  8
EXHAUST
 10
52.643162
 20
19.745683
 30
0.0
 40
4.0
 50
272.550823
 51
315.782793
  0
ARC
  8
EXHAUST
 10
54.332757
 20
21.482087
 30
0.0
 40
4.0
 50
315.782793
 51
340.92157
  0
ARC
  8
EXHAUST
 10
55.339671
 20
24.393426
 30
0.0
 40
4.0
 50
340.92157
 51
39.2229
  0
ARC
  8
EXHAUST
 10
54.211856
 20
25.775135
 30
0.0
 40
4.0
 50
39.2229
 51
68.565935
  0
ARC
  8
EXHAUST
 10
51.677557
 20
26.770055
 30
0.0
 40
4.0
 50
68.565935
 51
75.530278
  0
LINE
  8
EXHAUST
 10
57.199562
 20
18.692566
 30
0.0
 11
55.509967
 21
16.956161
 31
0.0
  0
LINE
  8
EXHAUST
 10
59.119959
 20
23.085977
 30
0.0
 11
58.113045
 21
20.174639
 31
0.0
  0
LINE
  8
EXHAUST
 10
57.310624
 20
28.304491
 30
0.0
 11
58.438438
 21
26.922781
 31
0.0
  0
LINE
  8
EXHAUST
 10
53.139278
 20
30.49341
 30
0.0
 11
55.673577
 21
29.49849
 31
0.0
  0
LINE
  8
EXHAUST
 10
30.821771
 20
25.295674
 30
0.0
 11
29.209706
 21
22.789447
 31
0.0
  0
LINE
  8
EXHAUST
 10
22.145404
 20
27.305478
 30
0.0
 11
21.558319
 21
28.641396
 31
0.0
  0
ARC
  8
EXHAUST
 10
52.712644
 20
21.750762
 30
0.0
 40
6.0
 50
272.550823
 51
338.11893
  0
ARC
  8
EXHAUST
 10
45.702953
 20
21.438482
 30
0.0
 40
6.0
 50
253.703673
 51
272.550823
  0
LINE
  8
EXHAUST
 10
45.969987
 20
15.444427
 30
0.0
 11
52.821185
 21
15.749646
 31
0.0
  0
ARC
  8
EXHAUST
 10
40.971534
 20
20.557576
 30
0.0
 40
4.0
 50
240.875158
 51
255.540233
  0
ARC
  8
EXHAUST
 10
41.954192
 20
22.534435
 30
0.0
 40
4.0
 50
236.860296
 51
253.703673
  0
ARC
  8
EXHAUST
 10
45.702953
 20
21.438482
 30
0.0
 40
4.0
 50
253.703673
 51
272.550823
  0
LINE
  8
EXHAUST
 10
24.2743
 20
30.321674
 30
0.0
 11
22.145404
 21
27.305478
 31
0.0
  0
LINE
  8
EXHAUST
 10
39.972734
 20
16.684283
 30
0.0
 11
44.019322
 21
15.679542
 31
0.0
  0
LINE
  8
EXHAUST
 10
29.209706
 20
22.789447
 30
0.0
 11
39.024678
 21
17.063331
 31
0.0
  0
LINE
  8
EXHAUST
 10
29.209706
 20
22.789447
 30
0.0
 11
22.145404
 21
27.305478
 31
0.0
  0
LINE
  8
EXHAUST
 10
30.821771
 20
25.295674
 30
0.0
 11
24.2743
 21
30.321674
 31
0.0
  0
LINE
  8
EXHAUST
 10
39.767463
 20
19.185075
 30
0.0
 11
30.821771
 21
25.295674
 31
0.0
  0
LINE
  8
EXHAUST
 10
44.580533
 20
17.599189
 30
0.0
 11
40.831772
 21
18.695142
 31
0.0
  0
LINE
  8
EXHAUST
 10
45.880976
 20
17.442445
 30
0.0
 11
52.66971
 21
17.744882
 31
0.0
  0
ARC
  8
SEAT
 10
36.291357
 20
44.947512
 30
0.0
 40
4.0
 50
260.218899
 51
305.73103
  0
ARC
  8
SEAT
 10
30.780328
 20
43.868059
 30
0.0
 40
2.0
 50
201.871606
 51
260.218899
  0
ARC
  8
SEAT
 10
38.867725
 20
42.119792
 30
0.0
 40
0.2
 50
305.73103
 51
319.616094
  0
LINE
  8
SEAT
 10
38.984521
 20
41.957439
 30
0.0
 11
38.627281
 21
41.700442
 31
0.0
  0
ARC
  8
MOTOR
 10
53.119461
 20
19.036385
 30
0.0
 40
0.2
 50
269.173051
 51
276.706605
  0
ARC
  8
MOTOR
 10
54.146696
 20
19.307376
 30
0.0
 40
0.35
 50
180.0
 51
263.381143
  0
ARC
  8
MOTOR
 10
51.898408
 20
19.204025
 30
0.0
 40
0.35
 50
269.173051
 51
360.0
  0
LINE
  8
MOTOR
 10
53.796696
 20
20.463016
 30
0.0
 11
53.796696
 21
19.307376
 31
0.0
  0
LINE
  8
MOTOR
 10
52.248408
 20
20.542026
 30
0.0
 11
52.248408
 21
19.204025
 31
0.0
  0
CIRCLE
  8
MOTOR
 62
     8
 10
45.887525
 20
20.231665
 30
0.0
 40
0.163761
  0
CIRCLE
  8
MOTOR
 10
46.058981
 20
19.205022
 30
0.0
 40
0.245
  0
ARC
  8
MOTOR
 10
45.467045
 20
19.144714
 30
0.0
 40
0.35
 50
5.817429
 51
59.78555
  0
ARC
  8
MOTOR
 10
46.29865
 20
18.660427
 30
0.0
 40
0.35
 50
59.78555
 51
113.753671
  0
LINE
  8
MOTOR
 10
46.474783
 20
18.962879
 30
0.0
 11
46.449364
 21
18.977682
 31
0.0
  0
ARC
  8
MOTOR
 10
47.449259
 20
18.568171
 30
0.0
 40
0.35
 50
35.204931
 51
89.173051
  0
ARC
  8
MOTOR
 10
48.4115
 20
18.554282
 30
0.0
 40
0.35
 50
89.173051
 51
143.141172
  0
LINE
  8
MOTOR
 10
48.416551
 20
18.904246
 30
0.0
 11
50.813541
 21
18.869648
 31
0.0
  0
CIRCLE
  8
MOTOR
 10
51.294661
 20
18.862703
 30
0.0
 40
0.245
  0
ARC
  8
MOTOR
 10
50.80849
 20
18.519684
 30
0.0
 40
0.35
 50
35.204931
 51
89.173051
  0
ARC
  8
MOTOR
 10
51.77073
 20
18.505795
 30
0.0
 40
0.35
 50
89.173051
 51
143.141172
  0
LINE
  8
MOTOR
 10
51.775782
 20
18.855759
 30
0.0
 11
53.116575
 21
18.836406
 31
0.0
  0
CIRCLE
  8
MOTOR
 10
54.510003
 20
18.99852
 30
0.0
 40
0.245
  0
ARC
  8
MOTOR
 10
54.073
 20
18.594722
 30
0.0
 40
0.35
 50
42.738484
 51
96.706605
  0
ARC
  8
MOTOR
 10
55.039267
 20
18.726666
 30
0.0
 40
0.35
 50
109.798873
 51
152.812842
  0
LINE
  8
MOTOR
 10
47.076531
 20
18.550377
 30
0.0
 11
47.076531
 21
18.923587
 31
0.0
  0
LINE
  8
MOTOR
 10
46.600135
 20
18.550377
 30
0.0
 11
47.076531
 21
18.550377
 31
0.0
  0
LINE
  8
MOTOR
 10
46.600135
 20
18.931054
 30
0.0
 11
46.600135
 21
18.550377
 31
0.0
  0
LINE
  8
MOTOR
 10
53.010642
 20
18.550377
 30
0.0
 11
53.010642
 21
18.837935
 31
0.0
  0
LINE
  8
MOTOR
 10
54.106353
 20
18.550377
 30
0.0
 11
53.010642
 21
18.550377
 31
0.0
  0
LINE
  8
MOTOR
 10
54.106353
 20
18.959709
 30
0.0
 11
54.106353
 21
18.550377
 31
0.0
  0
ARC
  8
MOTOR
 10
49.173667
 20
20.981
 30
0.0
 40
2.098455
 50
193.738091
 51
349.36389
  0
LINE
  8
MOTOR
 62
     8
 10
45.0317
 20
20.229753
 30
0.0
 11
45.127039
 21
20.042642
 31
0.0
  0
LINE
  8
MOTOR
 62
     8
 10
45.146075
 20
20.405874
 30
0.0
 11
45.0317
 21
20.229753
 31
0.0
  0
LINE
  8
MOTOR
 62
     8
 10
45.355787
 20
20.394883
 30
0.0
 11
45.146075
 21
20.405874
 31
0.0
  0
LINE
  8
MOTOR
 62
     8
 10
45.451125
 20
20.207772
 30
0.0
 11
45.355787
 21
20.394883
 31
0.0
  0
LINE
  8
MOTOR
 62
     8
 10
45.336751
 20
20.031651
 30
0.0
 11
45.451125
 21
20.207772
 31
0.0
  0
LINE
  8
MOTOR
 62
     8
 10
45.127039
 20
20.042642
 30
0.0
 11
45.336751
 21
20.031651
 31
0.0
  0
ARC
  8
MOTOR
 10
47.935431
 20
18.91119
 30
0.0
 40
0.245
 50
215.204931
 51
323.141172
  0
LINE
  8
MOTOR
 62
     8
 10
54.300291
 20
19.009511
 30
0.0
 11
54.395629
 21
18.8224
 31
0.0
  0
LINE
  8
MOTOR
 62
     8
 10
54.414665
 20
19.185632
 30
0.0
 11
54.300291
 21
19.009511
 31
0.0
  0
LINE
  8
MOTOR
 62
     8
 10
54.624377
 20
19.174641
 30
0.0
 11
54.414665
 21
19.185632
 31
0.0
  0
LINE
  8
MOTOR
 62
     8
 10
54.719715
 20
18.98753
 30
0.0
 11
54.624377
 21
19.174641
 31
0.0
  0
LINE
  8
MOTOR
 62
     8
 10
54.605341
 20
18.811409
 30
0.0
 11
54.719715
 21
18.98753
 31
0.0
  0
LINE
  8
MOTOR
 62
     8
 10
54.395629
 20
18.8224
 30
0.0
 11
54.605341
 21
18.811409
 31
0.0
  0
LINE
  8
MOTOR
 62
     8
 10
51.084949
 20
18.873694
 30
0.0
 11
51.180287
 21
18.686582
 31
0.0
  0
LINE
  8
MOTOR
 62
     8
 10
51.199323
 20
19.049814
 30
0.0
 11
51.084949
 21
18.873694
 31
0.0
  0
LINE
  8
MOTOR
 62
     8
 10
51.409035
 20
19.038824
 30
0.0
 11
51.199323
 21
19.049814
 31
0.0
  0
LINE
  8
MOTOR
 62
     8
 10
51.504373
 20
18.851713
 30
0.0
 11
51.409035
 21
19.038824
 31
0.0
  0
LINE
  8
MOTOR
 62
     8
 10
51.389999
 20
18.675592
 30
0.0
 11
51.504373
 21
18.851713
 31
0.0
  0
LINE
  8
MOTOR
 62
     8
 10
51.180287
 20
18.686582
 30
0.0
 11
51.389999
 21
18.675592
 31
0.0
  0
LINE
  8
MOTOR
 62
     8
 10
45.849269
 20
19.216013
 30
0.0
 11
45.944607
 21
19.028902
 31
0.0
  0
LINE
  8
MOTOR
 62
     8
 10
45.963643
 20
19.392134
 30
0.0
 11
45.849269
 21
19.216013
 31
0.0
  0
LINE
  8
MOTOR
 62
     8
 10
46.173355
 20
19.381143
 30
0.0
 11
45.963643
 21
19.392134
 31
0.0
  0
LINE
  8
MOTOR
 62
     8
 10
46.268693
 20
19.194032
 30
0.0
 11
46.173355
 21
19.381143
 31
0.0
  0
LINE
  8
MOTOR
 62
     8
 10
46.154319
 20
19.017911
 30
0.0
 11
46.268693
 21
19.194032
 31
0.0
  0
LINE
  8
MOTOR
 62
     8
 10
45.944607
 20
19.028902
 30
0.0
 11
46.154319
 21
19.017911
 31
0.0
  0
ARC
  8
MOTOR
 10
46.625497
 20
19.280134
 30
0.0
 40
0.35
 50
239.78555
 51
269.173051
  0
ARC
  8
MOTOR
 10
54.802163
 20
19.385287
 30
0.0
 40
0.35
 50
289.798873
 51
0.59629
  0
ARC
  8
MOTOR
 10
45.131755
 20
19.976436
 30
0.0
 40
0.2
 50
180.0
 51
239.78555
  0
ARC
  8
MOTOR
 10
46.037033
 20
20.061464
 30
0.0
 40
0.2
 50
270.0
 51
346.675519
  0
LINE
  8
MOTOR
 10
55.152144
 20
19.388929
 30
0.0
 11
55.143029
 21
20.264743
 31
0.0
  0
LINE
  8
MOTOR
 10
53.142818
 20
18.837753
 30
0.0
 11
54.032125
 21
18.942327
 31
0.0
  0
LINE
  8
MOTOR
 10
46.620446
 20
18.930171
 30
0.0
 11
47.454311
 21
18.918135
 31
0.0
  0
LINE
  8
MOTOR
 10
45.031108
 20
19.803606
 30
0.0
 11
45.643178
 21
19.447166
 31
0.0
  0
LINE
  8
MOTOR
 10
46.037033
 20
19.861464
 30
0.0
 11
44.968104
 21
19.861464
 31
0.0
  0
LINE
  8
MOTOR
 10
46.353462
 20
20.529695
 30
0.0
 11
46.231649
 21
20.015371
 31
0.0
  0
LINE
  8
MOTOR
 10
44.931755
 20
20.615612
 30
0.0
 11
44.931755
 21
19.976436
 31
0.0
  0
CIRCLE
  8
MOTOR
 10
44.02688
 20
20.504895
 30
0.0
 40
0.245
  0
ARC
  8
MOTOR
 10
44.467589
 20
20.443249
 30
0.0
 40
0.2
 50
86.547907
 51
172.037163
  0
ARC
  8
MOTOR
 10
43.672556
 20
20.774116
 30
0.0
 40
0.2
 50
322.771778
 51
18.415051
  0
CIRCLE
  8
MOTOR
 10
50.03245
 20
20.385795
 30
0.0
 40
0.245
  0
ARC
  8
MOTOR
 10
49.668666
 20
20.129502
 30
0.0
 40
0.2
 50
35.165487
 51
86.547907
  0
ARC
  8
MOTOR
 10
50.475017
 20
20.432263
 30
0.0
 40
0.2
 50
87.0787
 51
185.993831
  0
CIRCLE
  8
MOTOR
 10
46.742428
 20
20.506386
 30
0.0
 40
0.245
  0
ARC
  8
MOTOR
 10
46.333583
 20
20.330685
 30
0.0
 40
0.2
 50
23.255552
 51
86.547907
  0
ARC
  8
MOTOR
 10
47.127188
 20
20.282813
 30
0.0
 40
0.2
 50
86.547907
 51
149.840262
  0
LINE
  8
MOTOR
 10
46.345626
 20
20.530323
 30
0.0
 11
44.479632
 21
20.642886
 31
0.0
  0
CIRCLE
  8
MOTOR
 10
52.700985
 20
20.518931
 30
0.0
 40
0.245
  0
ARC
  8
MOTOR
 10
52.293786
 20
20.33945
 30
0.0
 40
0.2
 50
23.786345
 51
87.0787
  0
ARC
  8
MOTOR
 10
53.0878
 20
20.298931
 30
0.0
 40
0.2
 50
87.0787
 51
150.371054
  0
LINE
  8
MOTOR
 10
53.097992
 20
20.498671
 30
0.0
 11
54.373035
 21
20.433605
 31
0.0
  0
LINE
  8
MOTOR
 62
     8
 10
43.912505
 20
20.328774
 30
0.0
 11
44.122218
 21
20.317783
 31
0.0
  0
LINE
  8
MOTOR
 62
     8
 10
44.122218
 20
20.317783
 30
0.0
 11
44.236592
 21
20.493904
 31
0.0
  0
LINE
  8
MOTOR
 62
     8
 10
44.236592
 20
20.493904
 30
0.0
 11
44.141254
 21
20.681016
 31
0.0
  0
LINE
  8
MOTOR
 62
     8
 10
44.141254
 20
20.681016
 30
0.0
 11
43.931542
 21
20.692006
 31
0.0
  0
LINE
  8
MOTOR
 62
     8
 10
43.931542
 20
20.692006
 30
0.0
 11
43.817167
 21
20.515885
 31
0.0
  0
LINE
  8
MOTOR
 62
     8
 10
43.817167
 20
20.515885
 30
0.0
 11
43.912505
 21
20.328774
 31
0.0
  0
LINE
  8
MOTOR
 62
     8
 10
52.586611
 20
20.34281
 30
0.0
 11
52.796323
 21
20.331819
 31
0.0
  0
LINE
  8
MOTOR
 62
     8
 10
52.796323
 20
20.331819
 30
0.0
 11
52.910698
 21
20.50794
 31
0.0
  0
LINE
  8
MOTOR
 62
     8
 10
52.910698
 20
20.50794
 30
0.0
 11
52.81536
 21
20.695051
 31
0.0
  0
LINE
  8
MOTOR
 62
     8
 10
52.81536
 20
20.695051
 30
0.0
 11
52.605647
 21
20.706042
 31
0.0
  0
LINE
  8
MOTOR
 62
     8
 10
52.605647
 20
20.706042
 30
0.0
 11
52.491273
 21
20.529921
 31
0.0
  0
LINE
  8
MOTOR
 62
     8
 10
52.491273
 20
20.529921
 30
0.0
 11
52.586611
 21
20.34281
 31
0.0
  0
LINE
  8
MOTOR
 62
     8
 10
49.918076
 20
20.209674
 30
0.0
 11
50.127788
 21
20.198684
 31
0.0
  0
LINE
  8
MOTOR
 62
     8
 10
50.127788
 20
20.198684
 30
0.0
 11
50.242162
 21
20.374805
 31
0.0
  0
LINE
  8
MOTOR
 62
     8
 10
50.242162
 20
20.374805
 30
0.0
 11
50.146824
 21
20.561916
 31
0.0
  0
LINE
  8
MOTOR
 62
     8
 10
50.146824
 20
20.561916
 30
0.0
 11
49.937112
 21
20.572907
 31
0.0
  0
LINE
  8
MOTOR
 62
     8
 10
49.937112
 20
20.572907
 30
0.0
 11
49.822738
 21
20.396786
 31
0.0
  0
LINE
  8
MOTOR
 62
     8
 10
49.822738
 20
20.396786
 30
0.0
 11
49.918076
 21
20.209674
 31
0.0
  0
LINE
  8
MOTOR
 62
     8
 10
46.628054
 20
20.330265
 30
0.0
 11
46.837766
 21
20.319275
 31
0.0
  0
LINE
  8
MOTOR
 62
     8
 10
46.837766
 20
20.319275
 30
0.0
 11
46.952141
 21
20.495396
 31
0.0
  0
LINE
  8
MOTOR
 62
     8
 10
46.952141
 20
20.495396
 30
0.0
 11
46.856803
 21
20.682507
 31
0.0
  0
LINE
  8
MOTOR
 62
     8
 10
46.856803
 20
20.682507
 30
0.0
 11
46.64709
 21
20.693497
 31
0.0
  0
LINE
  8
MOTOR
 62
     8
 10
46.64709
 20
20.693497
 30
0.0
 11
46.532716
 21
20.517377
 31
0.0
  0
LINE
  8
MOTOR
 62
     8
 10
46.532716
 20
20.517377
 30
0.0
 11
46.628054
 21
20.330265
 31
0.0
  0
CIRCLE
  8
MOTOR
 10
53.749486
 20
27.755378
 30
0.0
 40
0.245
  0
LINE
  8
MOTOR
 62
     8
 10
53.539774
 20
27.766368
 30
0.0
 11
53.635112
 21
27.579257
 31
0.0
  0
LINE
  8
MOTOR
 62
     8
 10
53.654148
 20
27.942489
 30
0.0
 11
53.539774
 21
27.766368
 31
0.0
  0
LINE
  8
MOTOR
 62
     8
 10
53.86386
 20
27.931498
 30
0.0
 11
53.654148
 21
27.942489
 31
0.0
  0
LINE
  8
MOTOR
 62
     8
 10
53.959198
 20
27.744387
 30
0.0
 11
53.86386
 21
27.931498
 31
0.0
  0
LINE
  8
MOTOR
 62
     8
 10
53.844824
 20
27.568266
 30
0.0
 11
53.959198
 21
27.744387
 31
0.0
  0
LINE
  8
MOTOR
 62
     8
 10
53.635112
 20
27.579257
 30
0.0
 11
53.844824
 21
27.568266
 31
0.0
  0
ARC
  8
MOTOR
 10
44.099513
 20
20.91627
 30
0.0
 40
0.25
 50
186.140588
 51
198.415051
  0
LINE
  8
MOTOR
 10
49.680709
 20
20.329139
 30
0.0
 11
47.139231
 21
20.48245
 31
0.0
  0
ARC
  8
MOTOR
 10
54.143225
 20
25.345013
 30
0.0
 40
2.3
 50
46.805519
 51
79.62175
  0
ARC
  8
MOTOR
 10
54.143225
 20
25.345013
 30
0.0
 40
2.0
 50
288.120541
 51
79.62175
  0
ARC
  8
FRAME
 10
42.551373
 20
19.466958
 30
0.0
 40
0.25
 50
267.0
 51
359.080721
  0
ARC
  8
FRAME
 10
41.097712
 20
19.543141
 30
0.0
 40
0.25
 50
187.772873
 51
267.0
  0
LINE
  8
FRAME
 10
40.813009
 20
19.780392
 30
0.0
 11
40.850009
 21
19.509329
 31
0.0
  0
LINE
  8
FRAME
 10
41.084628
 20
19.293483
 30
0.0
 11
42.538289
 21
19.2173
 31
0.0
  0
LINE
  8
FRAME
 10
41.360049
 20
22.458235
 30
0.0
 11
40.813009
 21
19.780392
 31
0.0
  0
LINE
  8
FRAME
 10
40.92811
 20
20.343828
 30
0.0
 11
42.831618
 21
20.244069
 31
0.0
  0
ARC
  8
FPEG
 62
     8
 10
37.559256
 20
27.921639
 30
0.0
 40
2.0
 50
0.734277
 51
7.041952
  0
ARC
  8
FPEG
 62
     8
 10
41.583891
 20
27.979678
 30
0.0
 40
2.025059
 50
180.916997
 51
217.685277
  0
ARC
  8
FPEG
 62
     8
 10
41.583891
 20
27.979678
 30
0.0
 40
2.255059
 50
180.916997
 51
217.169692
  0
LINE
  8
FPEG
 10
39.38725
 20
27.163647
 30
0.0
 11
39.573066
 21
26.480221
 31
0.0
  0
LINE
  8
SHOCK
 10
37.904246
 20
26.073965
 30
0.0
 11
37.913496
 21
26.066644
 31
0.0
  0
LINE
  8
SHOCK
 10
37.391929
 20
26.921105
 30
0.0
 11
36.743082
 21
27.152385
 31
0.0
  0
LINE
  8
FPEG
 10
36.345931
 20
25.029613
 30
0.0
 11
36.264091
 21
24.941851
 31
0.0
  0
LINE
  8
FPEG
 62
     8
 10
36.19966
 20
25.166013
 30
0.0
 11
36.11782
 21
25.07825
 31
0.0
  0
ARC
  8
FPEG
 62
     8
 10
39.614454
 20
28.593321
 30
0.0
 40
0.06
 50
46.999713
 51
136.999713
  0
LINE
  8
FPEG
 62
     8
 10
39.739479
 20
28.558771
 30
0.0
 11
39.483506
 21
28.797472
 31
0.0
  0
ARC
  8
FPEG
 62
     8
 10
39.526692
 20
28.675161
 30
0.0
 40
0.06
 50
316.999713
 51
46.999713
  0
ARC
  8
FPEG
 62
     8
 10
39.442586
 20
28.753591
 30
0.0
 40
0.06
 50
46.999713
 51
136.999713
  0
ARC
  8
FPEG
 62
     8
 10
39.698559
 20
28.514891
 30
0.0
 40
0.06
 50
316.999713
 51
46.999713
  0
LINE
  8
FPEG
 62
     8
 10
39.398705
 20
28.794511
 30
0.0
 11
39.269125
 21
28.655555
 31
0.0
  0
LINE
  8
FPEG
 62
     8
 10
39.74244
 20
28.47397
 30
0.0
 11
39.612859
 21
28.335014
 31
0.0
  0
LINE
  8
FPEG
 62
     8
 10
39.570573
 20
28.634241
 30
0.0
 11
39.440992
 21
28.495284
 31
0.0
  0
LINE
  8
FPEG
 62
     8
 10
39.63754
 20
28.311998
 30
0.0
 11
39.244444
 21
28.67857
 31
0.0
  0
LINE
  8
FPEG
 62
     8
 10
38.889803
 20
28.298268
 30
0.0
 11
38.848883
 21
28.254387
 31
0.0
  0
LINE
  8
FPEG
 62
     8
 10
39.282899
 20
27.931696
 30
0.0
 11
39.241979
 21
27.887815
 31
0.0
  0
LINE
  8
FPEG
 62
     8
 10
39.244444
 20
28.67857
 30
0.0
 11
39.162604
 21
28.590808
 31
0.0
  0
LINE
  8
FPEG
 62
     8
 10
39.63754
 20
28.311998
 30
0.0
 11
39.5557
 21
28.224236
 31
0.0
  0
LINE
  8
FPEG
 62
     8
 10
39.59662
 20
28.268117
 30
0.0
 11
39.203524
 21
28.634689
 31
0.0
  0
ARC
  8
FPEG
 62
     8
 10
39.222752
 20
28.261252
 30
0.0
 40
0.335
 50
100.343308
 51
173.656118
  0
ARC
  8
FPEG
 62
     8
 10
39.222752
 20
28.261252
 30
0.0
 40
0.335
 50
280.343308
 51
353.656118
  0
LINE
  8
FPEG
 62
     8
 10
39.5557
 20
28.224236
 30
0.0
 11
39.162604
 21
28.590808
 31
0.0
  0
LINE
  8
FPEG
 62
     8
 10
39.282899
 20
27.931696
 30
0.0
 11
38.889803
 21
28.298268
 31
0.0
  0
ARC
  8
FPEG
 10
37.756482
 20
26.980436
 30
0.0
 40
0.376737
 50
89.838139
 51
190.108731
  0
LINE
  8
FPEG
 62
     8
 10
37.704224
 20
25.593288
 30
0.0
 11
37.904224
 21
25.593288
 31
0.0
  0
LINE
  8
FPEG
 62
     8
 10
37.904224
 20
25.593288
 30
0.0
 11
38.004224
 21
25.766493
 31
0.0
  0
LINE
  8
FPEG
 62
     8
 10
38.004224
 20
25.766493
 30
0.0
 11
37.904224
 21
25.939698
 31
0.0
  0
LINE
  8
FPEG
 62
     8
 10
37.904224
 20
25.939698
 30
0.0
 11
37.704224
 21
25.939698
 31
0.0
  0
LINE
  8
FPEG
 62
     8
 10
37.704224
 20
25.939698
 30
0.0
 11
37.604224
 21
25.766493
 31
0.0
  0
LINE
  8
FPEG
 62
     8
 10
37.604224
 20
25.766493
 30
0.0
 11
37.704224
 21
25.593288
 31
0.0
  0
LINE
  8
FPEG
 62
     8
 10
38.895712
 20
27.151445
 30
0.0
 11
38.995712
 21
26.97824
 31
0.0
  0
LINE
  8
FPEG
 62
     8
 10
38.995712
 20
27.32465
 30
0.0
 11
38.895712
 21
27.151445
 31
0.0
  0
LINE
  8
FPEG
 62
     8
 10
39.195712
 20
27.32465
 30
0.0
 11
38.995712
 21
27.32465
 31
0.0
  0
LINE
  8
FPEG
 62
     8
 10
39.295712
 20
27.151445
 30
0.0
 11
39.195712
 21
27.32465
 31
0.0
  0
LINE
  8
FPEG
 62
     8
 10
39.195712
 20
26.97824
 30
0.0
 11
39.295712
 21
27.151445
 31
0.0
  0
LINE
  8
FPEG
 62
     8
 10
38.995712
 20
26.97824
 30
0.0
 11
39.195712
 21
26.97824
 31
0.0
  0
CIRCLE
  8
FPEG
 62
     8
 10
35.871451
 20
24.667423
 30
0.0
 40
0.239236
  0
LINE
  8
FPEG
 62
     8
 10
36.124762
 20
25.235856
 30
0.0
 11
36.420828
 21
24.95977
 31
0.0
  0
LINE
  8
FPEG
 62
     8
 10
36.124762
 20
25.235856
 30
0.0
 11
36.042923
 21
25.148093
 31
0.0
  0
LINE
  8
FPEG
 62
     8
 10
36.420828
 20
24.95977
 30
0.0
 11
36.338988
 21
24.872008
 31
0.0
  0
LINE
  8
FPEG
 10
36.000803
 20
25.18737
 30
0.0
 11
36.381107
 21
24.832731
 31
0.0
  0
LINE
  8
FPEG
 10
36.000803
 20
25.18737
 30
0.0
 11
35.78584
 21
24.95685
 31
0.0
  0
LINE
  8
FPEG
 10
36.381107
 20
24.832731
 30
0.0
 11
36.166144
 21
24.60221
 31
0.0
  0
ARC
  8
FPEG
 10
36.533816
 20
25.568339
 30
0.0
 40
0.12
 50
137.0
 51
227.0
  0
ARC
  8
FPEG
 10
36.723968
 20
25.39102
 30
0.0
 40
0.12
 50
227.0
 51
317.0
  0
LINE
  8
FPEG
 10
36.451976
 20
25.480577
 30
0.0
 11
36.642128
 21
25.303257
 31
0.0
  0
LINE
  8
FPEG
 10
36.473917
 20
25.460117
 30
0.0
 11
36.19966
 21
25.166013
 31
0.0
  0
LINE
  8
FPEG
 10
36.620187
 20
25.323717
 30
0.0
 11
36.345931
 21
25.029613
 31
0.0
  0
LINE
  8
FPEG
 10
36.534713
 20
25.745255
 30
0.0
 11
36.446053
 21
25.650179
 31
0.0
  0
LINE
  8
FPEG
 10
36.90039
 20
25.404256
 30
0.0
 11
36.81173
 21
25.30918
 31
0.0
  0
LINE
  8
FPEG
 10
37.606023
 20
25.552345
 30
0.0
 11
37.679947
 21
25.267597
 31
0.0
  0
ARC
  8
FPEG
 10
35.871451
 20
24.667423
 30
0.0
 40
0.301822
 50
106.47797
 51
347.52203
  0
ARC
  8
FPEG
 10
38.749796
 20
26.910961
 30
0.0
 40
0.12
 50
47.0
 51
137.0
  0
LINE
  8
FPEG
 10
38.89671
 20
26.938041
 30
0.0
 11
38.831636
 21
26.998723
 31
0.0
  0
ARC
  8
FPEG
 10
37.998051
 20
26.148801
 30
0.0
 40
0.12
 50
137.0
 51
227.0
  0
LINE
  8
FPEG
 10
38.003226
 20
25.979897
 30
0.0
 11
37.916212
 21
26.061039
 31
0.0
  0
LINE
  8
FPEG
 10
39.217761
 20
27.742704
 30
0.0
 11
39.374396
 21
27.237921
 31
0.0
  0
CIRCLE
  8
FPEG
 10
37.804224
 20
25.766493
 30
0.0
 40
0.291793
  0
CIRCLE
  8
FPEG
 10
39.095712
 20
27.151445
 30
0.0
 40
0.291793
  0
LINE
  8
FPEG
 10
38.705813
 20
28.220103
 30
0.0
 11
38.407371
 21
28.054023
 31
0.0
  0
LINE
  8
FPEG
 10
39.217761
 20
27.742704
 30
0.0
 11
39.077234
 21
27.442652
 31
0.0
  0
LINE
  8
FPEG
 10
36.942556
 20
26.439212
 30
0.0
 11
36.723272
 21
26.424001
 31
0.0
  0
LINE
  8
FPEG
 10
38.791063
 20
28.311522
 30
0.0
 11
38.705813
 21
28.220103
 31
0.0
  0
LINE
  8
FPEG
 10
39.30301
 20
27.834123
 30
0.0
 11
39.217761
 21
27.742704
 31
0.0
  0
LINE
  8
FPEG
 10
38.791063
 20
28.311522
 30
0.0
 11
39.30301
 21
27.834123
 31
0.0
  0
LINE
  8
FPEG
 10
38.407371
 20
28.054023
 30
0.0
 11
37.725373
 21
27.322669
 31
0.0
  0
LINE
  8
FPEG
 10
38.662034
 20
26.992801
 30
0.0
 11
38.390905
 21
26.70205
 31
0.0
  0
LINE
  8
FPEG
 10
37.747314
 20
27.302209
 30
0.0
 11
36.942556
 21
26.439212
 31
0.0
  0
LINE
  8
FPEG
 10
38.368964
 20
26.72251
 30
0.0
 11
37.910289
 21
26.230641
 31
0.0
  0
LINE
  8
FPEG
 10
38.407371
 20
28.054023
 30
0.0
 11
39.064189
 21
27.44153
 31
0.0
  0
LINE
  8
FPEG
 10
37.725373
 20
27.322669
 30
0.0
 11
38.390905
 21
26.70205
 31
0.0
  0
LINE
  8
FPEG
 10
36.942556
 20
26.439212
 30
0.0
 11
37.537374
 21
25.884535
 31
0.0
  0
LINE
  8
FPEG
 10
38.705813
 20
28.220103
 30
0.0
 11
39.217761
 21
27.742704
 31
0.0
  0
LINE
  8
FPEG
 10
36.723272
 20
26.424001
 30
0.0
 11
37.527446
 21
25.674096
 31
0.0
  0
LINE
  8
FPEG
 10
36.297023
 20
25.966905
 30
0.0
 11
37.13808
 21
25.182607
 31
0.0
  0
LINE
  8
FPEG
 10
36.723272
 20
26.424001
 30
0.0
 11
36.297023
 21
25.966905
 31
0.0
  0
LINE
  8
FPEG
 10
37.549626
 20
25.623935
 30
0.0
 11
37.13808
 21
25.182607
 31
0.0
  0
LINE
  8
FRAME
 62
     8
 10
42.290755
 20
24.812369
 30
0.0
 11
42.736144
 21
24.789027
 31
0.0
  0
LINE
  8
FRAME
 62
     8
 10
42.736144
 20
24.789027
 30
0.0
 11
42.979053
 21
25.163074
 31
0.0
  0
LINE
  8
FRAME
 62
     8
 10
42.979053
 20
25.163074
 30
0.0
 11
42.776573
 21
25.560463
 31
0.0
  0
LINE
  8
FRAME
 62
     8
 10
42.776573
 20
25.560463
 30
0.0
 11
42.331184
 21
25.583805
 31
0.0
  0
LINE
  8
FRAME
 62
     8
 10
42.331184
 20
25.583805
 30
0.0
 11
42.088275
 21
25.209758
 31
0.0
  0
LINE
  8
FRAME
 62
     8
 10
42.088275
 20
25.209758
 30
0.0
 11
42.290755
 21
24.812369
 31
0.0
  0
CIRCLE
  8
FRAME
 62
     8
 10
42.533664
 20
25.186416
 30
0.0
 40
0.285034
  0
ARC
  8
FPEG
 10
37.263088
 20
24.369817
 30
0.0
 40
0.531262
 50
204.587184
 51
255.776862
  0
CIRCLE
  8
FPEG
 62
     8
 10
41.566268
 20
23.825516
 30
0.0
 40
0.19281
  0
LINE
  8
FPEG
 10
40.91596
 20
23.729274
 30
0.0
 11
40.937294
 21
23.452753
 31
0.0
  0
LINE
  8
FRAME
 10
41.264477
 20
23.696969
 30
0.0
 11
41.360049
 21
22.458235
 31
0.0
  0
LINE
  8
FPEG
 10
41.363068
 20
23.68783
 30
0.0
 11
37.606531
 21
24.036031
 31
0.0
  0
CIRCLE
  8
FPEG
 10
41.566268
 20
23.825516
 30
0.0
 40
0.245454
  0
LINE
  8
FPEG
 10
36.996264
 20
24.767525
 30
0.0
 11
36.346167
 21
24.795262
 31
0.0
  0
LINE
  8
FPEG
 10
36.848354
 20
24.130314
 30
0.0
 11
35.944078
 21
24.37447
 31
0.0
  0
LINE
  8
FPEG
 10
37.608409
 20
24.70166
 30
0.0
 11
41.46756
 21
24.050248
 31
0.0
  0
ARC
  8
FPEG
 62
     8
 10
37.263088
 20
24.369817
 30
0.0
 40
0.425783
 50
7.516949
 51
15.598423
  0
ARC
  8
FPEG
 62
     8
 10
37.263088
 20
24.369817
 30
0.0
 40
0.425783
 50
43.516949
 51
51.598423
  0
ARC
  8
FPEG
 62
     8
 10
37.263088
 20
24.369817
 30
0.0
 40
0.425783
 50
79.516949
 51
87.598423
  0
ARC
  8
FPEG
 62
     8
 10
37.263088
 20
24.369817
 30
0.0
 40
0.425783
 50
115.516949
 51
123.598423
  0
ARC
  8
FPEG
 62
     8
 10
37.263088
 20
24.369817
 30
0.0
 40
0.478922
 50
15.241377
 51
44.057991
  0
ARC
  8
FPEG
 62
     8
 10
37.263088
 20
24.369817
 30
0.0
 40
0.478922
 50
51.241377
 51
80.057991
  0
ARC
  8
FPEG
 62
     8
 10
37.263088
 20
24.369817
 30
0.0
 40
0.478922
 50
87.241377
 51
116.057991
  0
ARC
  8
FPEG
 62
     8
 10
37.263088
 20
24.369817
 30
0.0
 40
0.478922
 50
123.241377
 51
152.057991
  0
LINE
  8
FPEG
 62
     8
 10
36.864013
 20
24.518244
 30
0.0
 11
36.815257
 21
24.539562
 31
0.0
  0
LINE
  8
FPEG
 62
     8
 10
37.685212
 20
24.425518
 30
0.0
 11
37.737282
 21
24.43695
 31
0.0
  0
LINE
  8
FPEG
 62
     8
 10
37.67319
 20
24.484307
 30
0.0
 11
37.725165
 21
24.495719
 31
0.0
  0
LINE
  8
FPEG
 62
     8
 10
37.571854
 20
24.662998
 30
0.0
 11
37.607259
 21
24.702853
 31
0.0
  0
LINE
  8
FPEG
 62
     8
 10
37.527572
 20
24.703493
 30
0.0
 11
37.562913
 21
24.743276
 31
0.0
  0
LINE
  8
FPEG
 62
     8
 10
37.340557
 20
24.788493
 30
0.0
 11
37.345775
 21
24.841547
 31
0.0
  0
LINE
  8
FPEG
 62
     8
 10
37.28093
 20
24.795226
 30
0.0
 11
37.286138
 21
24.848184
 31
0.0
  0
LINE
  8
FPEG
 62
     8
 10
37.07967
 20
24.754068
 30
0.0
 11
37.052707
 21
24.800057
 31
0.0
  0
LINE
  8
FPEG
 62
     8
 10
37.027473
 20
24.724467
 30
0.0
 11
37.000559
 21
24.770372
 31
0.0
  0
LINE
  8
FPEG
 62
     8
 10
36.888843
 20
24.572873
 30
0.0
 11
36.839998
 21
24.594229
 31
0.0
  0
ARC
  8
FPEG
 62
     8
 10
37.263088
 20
24.369817
 30
0.0
 40
0.425783
 50
151.516949
 51
159.598423
  0
LINE
  8
FPEG
 10
36.785174
 20
24.400876
 30
0.0
 11
37.736734
 21
24.298923
 31
0.0
  0
LINE
  8
FPEG
 10
36.792784
 20
24.279374
 30
0.0
 11
37.703556
 21
24.181791
 31
0.0
  0
ARC
  8
FPEG
 10
37.263088
 20
24.369817
 30
0.0
 40
0.478922
 50
159.241377
 51
8.057991
  0
ARC
  8
TAIL
 62
     1
 10
18.012209
 20
45.740918
 30
0.0
 40
1.0
 50
211.759725
 51
255.403838
  0
ARC
  8
SEAT
 10
18.012209
 20
45.740918
 30
0.0
 40
0.75
 50
205.693308
 51
255.403838
  0
ARC
  8
TAIL
 62
     1
 10
27.883736
 20
41.776643
 30
0.0
 40
1.0
 50
216.579512
 51
251.728372
  0
LINE
  8
TAIL
 62
     1
 10
15.946596
 20
40.606633
 30
0.0
 11
20.952076
 21
38.408552
 31
0.0
  0
LINE
  8
SHOCK
 10
39.330145
 20
31.328988
 30
0.0
 11
39.188355
 21
31.506523
 31
0.0
  0
LINE
  8
SHOCK
 10
40.10839
 20
32.312293
 30
0.0
 11
39.713891
 21
32.806248
 31
0.0
  0
LINE
  8
SHOCK
 10
39.809337
 20
32.730706
 30
0.0
 11
40.743654
 21
32.288402
 31
0.0
  0
ARC
  8
SHOCK
 10
39.924863
 20
32.974742
 30
0.0
 40
0.27
 50
148.027082
 51
244.667192
  0
LINE
  8
SHOCK
 10
39.695823
 20
33.117712
 30
0.0
 11
41.258437
 21
31.880975
 31
0.0
  0
LINE
  8
SHOCK
 10
40.26778
 20
32.51368
 30
0.0
 11
39.963192
 21
32.128837
 31
0.0
  0
LINE
  8
SHOCK
 10
41.969515
 20
34.986072
 30
0.0
 11
41.508112
 21
34.403095
 31
0.0
  0
LINE
  8
SHOCK
 10
41.332521
 20
34.382654
 30
0.0
 11
42.000745
 21
33.853785
 31
0.0
  0
LINE
  8
SHOCK
 10
40.216523
 20
33.343254
 30
0.0
 11
39.906223
 21
32.95119
 31
0.0
  0
LINE
  8
SHOCK
 10
40.061373
 20
33.147222
 30
0.0
 11
41.350874
 21
32.126641
 31
0.0
  0
LINE
  8
SHOCK
 10
40.216523
 20
33.343254
 30
0.0
 11
41.443311
 21
32.372308
 31
0.0
  0
LINE
  8
SHOCK
 10
42.297445
 20
34.72653
 30
0.0
 11
41.969514
 21
34.986072
 31
0.0
  0
ARC
  8
SHOCK
 10
42.753641
 20
34.365472
 30
0.0
 40
1.0
 50
128.732885
 51
141.64
  0
LINE
  8
SHOCK
 10
41.410096
 20
34.48067
 30
0.0
 11
42.046964
 21
33.976619
 31
0.0
  0
LINE
  8
SHOCK
 10
41.410096
 20
34.48067
 30
0.0
 11
41.332521
 21
34.382654
 31
0.0
  0
LINE
  8
SHOCK
 10
41.430537
 20
34.305079
 30
0.0
 11
40.49491
 21
33.122924
 31
0.0
  0
ARC
  8
SHOCK
 10
36.033648
 20
28.058202
 30
0.0
 40
0.27
 50
64.667192
 51
244.667192
  0
LINE
  8
SHOCK
 10
35.918121
 20
27.814166
 30
0.0
 11
37.403151
 21
27.111155
 31
0.0
  0
LINE
  8
SHOCK
 10
37.876366
 20
27.484589
 30
0.0
 11
36.149174
 21
28.302239
 31
0.0
  0
LINE
  8
SHOCK
 10
37.347704
 20
27.937961
 30
0.0
 11
36.600918
 21
28.873016
 31
0.0
  0
LINE
  8
SHOCK
 10
38.011952
 20
27.971563
 30
0.0
 11
38.1589
 21
27.787569
 31
0.0
  0
LINE
  8
SHOCK
 10
38.12595
 20
28.921266
 30
0.0
 11
37.379161
 21
29.856324
 31
0.0
  0
LINE
  8
SHOCK
 10
38.900177
 20
28.351645
 30
0.0
 11
36.927417
 21
29.285547
 31
0.0
  0
LINE
  8
SHOCK
 10
36.696364
 20
28.797474
 30
0.0
 11
38.364327
 21
28.007863
 31
0.0
  0
ARC
  8
SHOCK
 10
36.811891
 20
29.04151
 30
0.0
 40
0.27
 50
64.667192
 51
244.667192
  0
ARC
  8
SHOCK
 10
39.325998
 20
27.851336
 30
0.0
 40
0.27
 50
336.095293
 51
30.718831
  0
LINE
  8
SHOCK
 10
39.92074
 20
29.497061
 30
0.0
 11
40.315214
 21
29.003138
 31
0.0
  0
LINE
  8
SHOCK
 10
38.551899
 20
30.345683
 30
0.0
 11
38.157404
 21
30.839632
 31
0.0
  0
LINE
  8
SHOCK
 10
40.219768
 20
29.07868
 30
0.0
 11
37.70566
 21
30.268855
 31
0.0
  0
LINE
  8
SHOCK
 10
37.474608
 20
29.780782
 30
0.0
 11
39.988715
 21
28.590607
 31
0.0
  0
ARC
  8
SHOCK
 10
37.590134
 20
30.024818
 30
0.0
 40
0.27
 50
64.667192
 51
244.667192
  0
ARC
  8
SHOCK
 10
40.104241
 20
28.834644
 30
0.0
 40
0.27
 50
244.667241
 51
64.667192
  0
LINE
  8
SHOCK
 10
40.698986
 20
30.480366
 30
0.0
 11
40.745627
 21
30.421966
 31
0.0
  0
LINE
  8
SHOCK
 10
40.764885
 20
30.172349
 30
0.0
 11
38.483904
 21
31.252162
 31
0.0
  0
LINE
  8
SHOCK
 10
38.252851
 20
30.76409
 30
0.0
 11
40.766958
 21
29.573915
 31
0.0
  0
ARC
  8
SHOCK
 10
38.368377
 20
31.008126
 30
0.0
 40
0.27
 50
64.667192
 51
244.667192
  0
ARC
  8
SHOCK
 10
40.882484
 20
29.817952
 30
0.0
 40
0.27
 50
244.667241
 51
254.943003
  0
LINE
  8
SHOCK
 10
35.866086
 20
27.846488
 30
0.0
 11
37.240492
 21
26.758709
 31
0.0
  0
LINE
  8
SHOCK
 10
35.78851
 20
27.748472
 30
0.0
 11
37.154961
 21
26.666989
 31
0.0
  0
LINE
  8
SHOCK
 10
36.401808
 20
26.944249
 30
0.0
 11
36.983901
 21
26.483549
 31
0.0
  0
LINE
  8
SHOCK
 10
35.78851
 20
27.748472
 30
0.0
 11
35.866086
 21
27.846488
 31
0.0
  0
LINE
  8
SHOCK
 10
38.623244
 20
28.743924
 30
0.0
 11
38.472872
 21
28.55393
 31
0.0
  0
LINE
  8
SHOCK
 10
38.231181
 20
29.054224
 30
0.0
 11
38.009015
 21
28.77352
 31
0.0
  0
LINE
  8
SHOCK
 10
36.479384
 20
27.042264
 30
0.0
 11
36.401809
 21
26.944249
 31
0.0
  0
LINE
  8
SHOCK
 10
36.226218
 20
26.923809
 30
0.0
 11
36.05857
 21
26.711988
 31
0.0
  0
LINE
  8
SHOCK
 10
36.07901
 20
26.536397
 30
0.0
 11
36.509997
 21
26.195291
 31
0.0
  0
ARC
  8
SHOCK
 10
36.156585
 20
26.634413
 30
0.0
 40
0.125
 50
141.639795
 51
231.64
  0
ARC
  8
SHOCK
 10
36.324233
 20
26.846233
 30
0.0
 40
0.125
 50
51.64
 51
141.639795
  0
LINE
  8
SHOCK
 10
36.021875
 20
26.26279
 30
0.0
 11
35.655653
 21
25.800072
 31
0.0
  0
LINE
  8
SHOCK
 10
36.370856
 20
25.898055
 30
0.0
 11
36.225556
 21
25.71447
 31
0.0
  0
ARC
  8
SHOCK
 10
35.557637
 20
25.877648
 30
0.0
 40
0.125
 50
320.290583
 51
321.639829
  0
LINE
  8
SHOCK
 10
37.799911
 20
29.395554
 30
0.0
 11
38.964102
 21
28.47415
 31
0.0
  0
LINE
  8
SHOCK
 10
39.395039
 20
31.410982
 30
0.0
 11
39.055265
 21
30.981681
 31
0.0
  0
LINE
  8
SHOCK
 10
40.750365
 20
30.545284
 30
0.0
 11
40.539609
 21
30.278995
 31
0.0
  0
LINE
  8
SHOCK
 10
40.19563
 20
29.844381
 30
0.0
 11
39.761362
 21
29.295688
 31
0.0
  0
LINE
  8
SHOCK
 10
38.711286
 20
30.547067
 30
0.0
 11
38.277018
 21
29.998374
 31
0.0
  0
LINE
  8
SHOCK
 10
37.93304
 20
29.563761
 30
0.0
 11
37.799911
 21
29.395554
 31
0.0
  0
LINE
  8
SHOCK
 10
39.417383
 20
28.861075
 30
0.0
 11
39.260838
 21
28.663282
 31
0.0
  0
LINE
  8
SHOCK
 10
37.665036
 20
28.338906
 30
0.0
 11
37.230768
 21
27.790214
 31
0.0
  0
LINE
  8
SHOCK
 10
38.128893
 20
28.119317
 30
0.0
 11
37.694626
 21
27.570624
 31
0.0
  0
ARC
  8
SHOCK
 10
36.381368
 20
27.11984
 30
0.0
 40
0.125
 50
321.639829
 51
51.64
  0
LINE
  8
SHOCK
 10
36.654861
 20
27.465395
 30
0.0
 11
36.536519
 21
27.315872
 31
0.0
  0
LINE
  8
SHOCK
 10
35.92386
 20
26.340365
 30
0.0
 11
36.338936
 21
26.011851
 31
0.0
  0
LINE
  8
SHOCK
 10
35.92386
 20
26.340365
 30
0.0
 11
36.07901
 21
26.536397
 31
0.0
  0
LINE
  8
SHOCK
 10
36.216232
 20
26.427792
 30
0.0
 11
36.061082
 21
26.23176
 31
0.0
  0
ARC
  8
REND
 10
35.489117
 20
25.186821
 30
0.0
 40
0.63277
 50
52.552887
 51
141.278457
  0
CIRCLE
  8
REND
 10
35.489117
 20
25.186821
 30
0.0
 40
0.31
  0
LINE
  8
REND
 62
     8
 10
35.374742
 20
25.0107
 30
0.0
 11
35.584455
 21
24.99971
 31
0.0
  0
LINE
  8
REND
 62
     8
 10
35.584455
 20
24.99971
 30
0.0
 11
35.698829
 21
25.175831
 31
0.0
  0
LINE
  8
REND
 62
     8
 10
35.698829
 20
25.175831
 30
0.0
 11
35.603491
 21
25.362942
 31
0.0
  0
LINE
  8
REND
 62
     8
 10
35.603491
 20
25.362942
 30
0.0
 11
35.393779
 21
25.373933
 31
0.0
  0
LINE
  8
REND
 62
     8
 10
35.393779
 20
25.373933
 30
0.0
 11
35.279404
 21
25.197812
 31
0.0
  0
LINE
  8
REND
 62
     8
 10
35.279404
 20
25.197812
 30
0.0
 11
35.374742
 21
25.0107
 31
0.0
  0
LINE
  8
REND
 10
36.516935
 20
24.219798
 30
0.0
 11
35.167308
 21
23.945751
 31
0.0
  0
LINE
  8
REND
 10
37.177425
 20
23.843709
 30
0.0
 11
35.210234
 21
23.444263
 31
0.0
  0
LINE
  8
REND
 10
39.721383
 20
25.965782
 30
0.0
 11
39.995702
 21
25.985502
 31
0.0
  0
LINE
  8
REND
 10
27.717345
 20
20.168723
 30
0.0
 11
26.329092
 21
19.886833
 31
0.0
  0
CIRCLE
  8
RROTOR
 10
25.809559
 20
20.326739
 30
0.0
 40
0.155
  0
CIRCLE
  8
RROTOR
 10
25.441766
 20
19.927928
 30
0.0
 40
0.155
  0
ARC
  8
REND
 62
     8
 10
23.995181
 20
25.489526
 30
0.0
 40
0.11
 50
321.066562
 51
163.938034
  0
ARC
  8
REND
 62
     8
 10
23.547898
 20
27.748164
 30
0.0
 40
2.0
 50
267.081709
 51
281.201474
  0
ARC
  8
REND
 62
     8
 10
23.995181
 20
25.489526
 30
0.0
 40
0.3025
 50
328.367816
 51
101.201474
  0
ARC
  8
REND
 62
     8
 10
24.369855
 20
24.452641
 30
0.0
 40
0.8
 50
76.935077
 51
87.519253
  0
ARC
  8
REND
 62
     8
 10
24.61908
 20
25.526602
 30
0.0
 40
0.3025
 50
114.033621
 51
281.201474
  0
ARC
  8
REND
 62
     8
 10
24.244407
 20
26.563485
 30
0.0
 40
0.8
 50
256.935077
 51
288.230874
  0
ARC
  8
REND
 62
     8
 10
25.24298
 20
25.563681
 30
0.0
 40
0.3025
 50
265.600726
 51
285.802616
  0
ARC
  8
REND
 62
     8
 10
25.066363
 20
23.267964
 30
0.0
 40
2.0
 50
85.600726
 51
101.201474
  0
CIRCLE
  8
REND
 62
     8
 10
24.61908
 20
25.526602
 30
0.0
 40
0.11
  0
ARC
  8
REND
 62
     8
 10
32.729771
 20
26.008609
 30
0.0
 40
0.3025
 50
312.683612
 51
96.602418
  0
ARC
  8
REND
 62
     8
 10
32.729771
 20
26.008609
 30
0.0
 40
0.11
 50
356.463255
 51
52.822774
  0
ARC
  8
REND
 62
     8
 10
33.104444
 20
24.971724
 30
0.0
 40
0.8
 50
76.935077
 51
101.297283
  0
ARC
  8
REND
 62
     8
 10
33.35367
 20
26.045685
 30
0.0
 40
0.3025
 50
85.600726
 51
281.201474
  0
ARC
  8
REND
 62
     8
 10
32.978996
 20
27.082568
 30
0.0
 40
0.8
 50
256.935077
 51
289.867123
  0
ARC
  8
REND
 62
     8
 10
33.977569
 20
26.082764
 30
0.0
 40
0.3025
 50
265.600726
 51
101.201474
  0
ARC
  8
REND
 62
     8
 10
33.800953
 20
23.787048
 30
0.0
 40
2.0
 50
85.600726
 51
101.201474
  0
ARC
  8
REND
 62
     8
 10
33.530286
 20
28.341402
 30
0.0
 40
2.0
 50
265.600726
 51
281.201474
  0
CIRCLE
  8
REND
 62
     8
 10
33.977569
 20
26.082764
 30
0.0
 40
0.11
  0
CIRCLE
  8
REND
 62
     8
 10
33.35367
 20
26.045685
 30
0.0
 40
0.11
  0
ARC
  8
REND
 62
     8
 10
34.352243
 20
25.045879
 30
0.0
 40
0.8
 50
76.935077
 51
109.867123
  0
ARC
  8
REND
 62
     8
 10
34.601468
 20
26.11984
 30
0.0
 40
0.3025
 50
85.600726
 51
281.201474
  0
ARC
  8
REND
 62
     8
 10
34.226795
 20
27.156723
 30
0.0
 40
0.8
 50
256.935077
 51
289.867123
  0
ARC
  8
REND
 62
     8
 10
35.225368
 20
26.156919
 30
0.0
 40
0.3025
 50
265.600726
 51
101.201474
  0
ARC
  8
REND
 62
     8
 10
35.048751
 20
23.861202
 30
0.0
 40
2.0
 50
85.600726
 51
101.201474
  0
ARC
  8
REND
 62
     8
 10
34.778085
 20
28.415556
 30
0.0
 40
2.0
 50
265.600726
 51
281.201474
  0
CIRCLE
  8
REND
 62
     8
 10
35.225368
 20
26.156919
 30
0.0
 40
0.11
  0
CIRCLE
  8
REND
 62
     8
 10
34.601468
 20
26.11984
 30
0.0
 40
0.11
  0
ARC
  8
REND
 62
     8
 10
35.600041
 20
25.120034
 30
0.0
 40
0.8
 50
79.871264
 51
109.867123
  0
ARC
  8
REND
 62
     8
 10
35.849267
 20
26.193995
 30
0.0
 40
0.3025
 50
85.600726
 51
249.475474
  0
ARC
  8
REND
 62
     8
 10
35.474593
 20
27.230878
 30
0.0
 40
0.8
 50
256.935077
 51
289.867123
  0
ARC
  8
REND
 62
     8
 10
36.025883
 20
28.489711
 30
0.0
 40
2.0
 50
265.600726
 51
270.464951
  0
ARC
  8
REND
 62
     8
 10
35.849267
 20
26.193995
 30
0.0
 40
0.11
 50
354.257004
 51
289.022655
  0
ARC
  8
REND
 62
     8
 10
24.77678
 20
17.510523
 30
0.0
 40
0.3025
 50
280.305726
 51
19.844388
  0
ARC
  8
REND
 62
     8
 10
25.188698
 20
15.245169
 30
0.0
 40
2.0
 50
100.305726
 51
111.299826
  0
ARC
  8
REND
 62
     8
 10
25.402387
 20
16.602708
 30
0.0
 40
0.8
 50
91.640077
 51
124.572123
  0
ARC
  8
REND
 62
     8
 10
25.370832
 20
17.704757
 30
0.0
 40
0.3025
 50
194.368015
 51
295.906474
  0
ARC
  8
REND
 62
     8
 10
25.964884
 20
17.898993
 30
0.0
 40
0.3025
 50
280.305726
 51
115.906474
  0
ARC
  8
REND
 62
     8
 10
26.376802
 20
15.633639
 30
0.0
 40
2.0
 50
100.305726
 51
115.906474
  0
ARC
  8
REND
 62
     8
 10
24.958914
 20
19.970111
 30
0.0
 40
2.0
 50
283.638417
 51
295.906474
  0
CIRCLE
  8
REND
 62
     8
 10
25.964884
 20
17.898993
 30
0.0
 40
0.11
  0
CIRCLE
  8
REND
 62
     8
 10
25.370832
 20
17.704757
 30
0.0
 40
0.11
  0
ARC
  8
REND
 62
     8
 10
26.590491
 20
16.991178
 30
0.0
 40
0.8
 50
91.640077
 51
124.572123
  0
ARC
  8
REND
 62
     8
 10
26.558936
 20
18.093227
 30
0.0
 40
0.3025
 50
100.305726
 51
295.906474
  0
ARC
  8
REND
 62
     8
 10
25.93333
 20
19.001039
 30
0.0
 40
0.8
 50
271.640077
 51
304.572123
  0
ARC
  8
REND
 62
     8
 10
27.152988
 20
18.287463
 30
0.0
 40
0.3025
 50
280.305726
 51
115.906474
  0
ARC
  8
REND
 62
     8
 10
27.564906
 20
16.022109
 30
0.0
 40
2.0
 50
100.305726
 51
115.906474
  0
ARC
  8
REND
 62
     8
 10
26.147018
 20
20.358581
 30
0.0
 40
2.0
 50
280.305726
 51
295.906474
  0
CIRCLE
  8
REND
 62
     8
 10
27.152988
 20
18.287463
 30
0.0
 40
0.11
  0
CIRCLE
  8
REND
 62
     8
 10
26.558936
 20
18.093227
 30
0.0
 40
0.11
  0
ARC
  8
REND
 62
     8
 10
27.778595
 20
17.379648
 30
0.0
 40
0.8
 50
91.640077
 51
124.572123
  0
ARC
  8
REND
 62
     8
 10
27.74704
 20
18.481697
 30
0.0
 40
0.3025
 50
100.305726
 51
295.906474
  0
ARC
  8
REND
 62
     8
 10
27.121434
 20
19.389509
 30
0.0
 40
0.8
 50
271.640077
 51
304.572123
  0
ARC
  8
REND
 62
     8
 10
28.341092
 20
18.675933
 30
0.0
 40
0.3025
 50
280.305726
 51
115.906474
  0
ARC
  8
REND
 62
     8
 10
28.75301
 20
16.410579
 30
0.0
 40
2.0
 50
100.305726
 51
115.906474
  0
ARC
  8
REND
 62
     8
 10
27.335122
 20
20.747051
 30
0.0
 40
2.0
 50
280.305726
 51
295.906474
  0
CIRCLE
  8
REND
 62
     8
 10
28.341092
 20
18.675933
 30
0.0
 40
0.11
  0
CIRCLE
  8
REND
 62
     8
 10
27.74704
 20
18.481697
 30
0.0
 40
0.11
  0
ARC
  8
REND
 62
     8
 10
28.966699
 20
17.768118
 30
0.0
 40
0.8
 50
92.341909
 51
124.572123
  0
ARC
  8
REND
 62
     8
 10
28.935144
 20
18.870167
 30
0.0
 40
0.3025
 50
121.072017
 51
269.779775
  0
ARC
  8
REND
 62
     8
 10
28.309538
 20
19.777979
 30
0.0
 40
0.8
 50
271.640077
 51
304.572123
  0
ARC
  8
REND
 62
     8
 10
28.935144
 20
18.870167
 30
0.0
 40
0.11
 50
139.930384
 51
250.921408
  0
ARC
  8
REND
 62
     8
 10
36.65782
 20
21.395222
 30
0.0
 40
0.3025
 50
312.083277
 51
115.906474
  0
ARC
  8
REND
 62
     8
 10
35.65185
 20
23.466341
 30
0.0
 40
2.0
 50
288.297176
 51
295.906474
  0
ARC
  8
REND
 62
     8
 10
36.65782
 20
21.395222
 30
0.0
 40
0.11
 50
285.442936
 51
185.884881
  0
ARC
  8
REND
 62
     8
 10
37.283427
 20
20.487408
 30
0.0
 40
0.8
 50
91.640077
 51
121.638041
  0
ARC
  8
REND
 62
     8
 10
37.251872
 20
21.589456
 30
0.0
 40
0.3025
 50
100.305726
 51
295.906474
  0
ARC
  8
REND
 62
     8
 10
36.626266
 20
22.497269
 30
0.0
 40
0.8
 50
271.640077
 51
304.572123
  0
ARC
  8
REND
 62
     8
 10
37.845924
 20
21.783692
 30
0.0
 40
0.3025
 50
280.305726
 51
115.906474
  0
ARC
  8
REND
 62
     8
 10
38.257842
 20
19.518338
 30
0.0
 40
2.0
 50
100.305726
 51
115.906474
  0
ARC
  8
REND
 62
     8
 10
36.839954
 20
23.854811
 30
0.0
 40
2.0
 50
280.305726
 51
295.906474
  0
CIRCLE
  8
REND
 62
     8
 10
37.845924
 20
21.783692
 30
0.0
 40
0.11
  0
CIRCLE
  8
REND
 62
     8
 10
37.251872
 20
21.589456
 30
0.0
 40
0.11
  0
ARC
  8
REND
 62
     8
 10
38.471531
 20
20.875878
 30
0.0
 40
0.8
 50
91.640077
 51
124.572123
  0
ARC
  8
REND
 62
     8
 10
38.439976
 20
21.977926
 30
0.0
 40
0.3025
 50
100.305726
 51
295.906474
  0
ARC
  8
REND
 62
     8
 10
37.81437
 20
22.885739
 30
0.0
 40
0.8
 50
271.640077
 51
304.572123
  0
ARC
  8
REND
 62
     8
 10
39.034028
 20
22.172162
 30
0.0
 40
0.3025
 50
280.305726
 51
115.906474
  0
ARC
  8
REND
 62
     8
 10
39.445946
 20
19.906808
 30
0.0
 40
2.0
 50
100.305726
 51
115.906474
  0
ARC
  8
REND
 62
     8
 10
38.028058
 20
24.24328
 30
0.0
 40
2.0
 50
280.305726
 51
295.906474
  0
CIRCLE
  8
REND
 62
     8
 10
39.034028
 20
22.172162
 30
0.0
 40
0.11
  0
CIRCLE
  8
REND
 62
     8
 10
38.439976
 20
21.977926
 30
0.0
 40
0.11
  0
ARC
  8
REND
 62
     8
 10
39.659635
 20
21.264348
 30
0.0
 40
0.8
 50
91.640077
 51
124.572123
  0
ARC
  8
REND
 62
     8
 10
39.62808
 20
22.366396
 30
0.0
 40
0.3025
 50
100.305726
 51
295.906474
  0
ARC
  8
REND
 62
     8
 10
39.002474
 20
23.274209
 30
0.0
 40
0.8
 50
271.640077
 51
304.572123
  0
ARC
  8
REND
 62
     8
 10
40.222132
 20
22.560632
 30
0.0
 40
0.3025
 50
280.305726
 51
115.906474
  0
ARC
  8
REND
 62
     8
 10
40.63405
 20
20.295278
 30
0.0
 40
2.0
 50
100.305726
 51
115.906474
  0
ARC
  8
REND
 62
     8
 10
39.216162
 20
24.63175
 30
0.0
 40
2.0
 50
280.305726
 51
295.906474
  0
CIRCLE
  8
REND
 62
     8
 10
40.222132
 20
22.560632
 30
0.0
 40
0.11
  0
CIRCLE
  8
REND
 62
     8
 10
39.62808
 20
22.366396
 30
0.0
 40
0.11
  0
ARC
  8
REND
 62
     8
 10
40.847738
 20
21.652818
 30
0.0
 40
0.8
 50
91.640077
 51
124.572123
  0
ARC
  8
REND
 62
     8
 10
40.816184
 20
22.754866
 30
0.0
 40
0.3025
 50
100.305726
 51
295.906474
  0
ARC
  8
REND
 62
     8
 10
40.190578
 20
23.662679
 30
0.0
 40
0.8
 50
271.640077
 51
304.572123
  0
ARC
  8
REND
 62
     8
 10
41.822154
 20
20.683748
 30
0.0
 40
2.0
 50
103.741617
 51
115.906474
  0
ARC
  8
REND
 62
     8
 10
40.404266
 20
25.02022
 30
0.0
 40
2.0
 50
280.305726
 51
281.003287
  0
CIRCLE
  8
REND
 62
     8
 10
40.816184
 20
22.754866
 30
0.0
 40
0.11
  0
LINE
  8
REND
 10
35.167308
 20
23.945751
 30
0.0
 11
35.210234
 21
23.444263
 31
0.0
  0
ARC
  8
REND
 10
35.231153
 20
25.141693
 30
0.0
 40
0.5
 50
118.127879
 51
183.84426
  0
ARC
  8
REND
 10
36.058006
 20
15.676618
 30
0.0
 40
10.0
 50
95.892106
 51
101.47808
  0
LINE
  8
REND
 10
35.873859
 20
25.689187
 30
0.0
 11
36.526157
 21
25.73608
 31
0.0
  0
LINE
  8
REND
 10
35.777748
 20
21.910359
 30
0.0
 11
39.707723
 21
23.215965
 31
0.0
  0
LINE
  8
REND
 10
34.9072
 20
22.50501
 30
0.0
 11
34.732278
 21
25.108171
 31
0.0
  0
LINE
  8
REND
 10
40.355851
 20
24.489101
 30
0.0
 11
39.68031
 21
24.35193
 31
0.0
  0
LINE
  8
REND
 10
40.317095
 20
24.991435
 30
0.0
 11
38.308245
 21
24.58353
 31
0.0
  0
LINE
  8
REND
 10
34.068075
 20
25.476627
 30
0.0
 11
33.136646
 21
25.287497
 31
0.0
  0
ARC
  8
EXHAUST
 62
     8
 10
39.823628
 20
17.789943
 30
0.0
 40
0.02923
 50
169.688054
 51
349.689487
  0
LINE
  8
EXHAUST
 62
     8
 10
39.996883
 20
18.177244
 30
0.0
 11
39.885913
 21
17.968989
 31
0.0
  0
LINE
  8
EXHAUST
 62
     8
 10
39.960395
 20
17.984452
 30
0.0
 11
39.849425
 21
17.776197
 31
0.0
  0
ARC
  8
EXHAUST
 62
     8
 10
40.02268
 20
18.163498
 30
0.0
 40
0.02923
 50
349.688598
 51
169.688598
  0
LINE
  8
EXHAUST
 62
     8
 10
40.051438
 20
18.158266
 30
0.0
 11
39.975672
 21
17.741823
 31
0.0
  0
LINE
  8
EXHAUST
 62
     8
 10
39.993921
 20
18.16873
 30
0.0
 11
39.918155
 21
17.752288
 31
0.0
  0
ARC
  8
EXHAUST
 62
     8
 10
39.700343
 20
17.83283
 30
0.0
 40
0.02923
 50
169.688054
 51
349.689487
  0
LINE
  8
EXHAUST
 62
     8
 10
39.873598
 20
18.22013
 30
0.0
 11
39.762628
 21
18.011876
 31
0.0
  0
LINE
  8
EXHAUST
 62
     8
 10
39.837109
 20
18.027338
 30
0.0
 11
39.726139
 21
17.819084
 31
0.0
  0
ARC
  8
EXHAUST
 62
     8
 10
39.899394
 20
18.206385
 30
0.0
 40
0.02923
 50
349.688598
 51
169.688598
  0
LINE
  8
EXHAUST
 62
     8
 10
39.928152
 20
18.201152
 30
0.0
 11
39.852386
 21
17.78471
 31
0.0
  0
LINE
  8
EXHAUST
 62
     8
 10
39.870636
 20
18.211617
 30
0.0
 11
39.79487
 21
17.795174
 31
0.0
  0
ARC
  8
EXHAUST
 62
     8
 10
39.577057
 20
17.875717
 30
0.0
 40
0.02923
 50
169.688054
 51
349.689487
  0
LINE
  8
EXHAUST
 62
     8
 10
39.750312
 20
18.263017
 30
0.0
 11
39.639342
 21
18.054763
 31
0.0
  0
LINE
  8
EXHAUST
 62
     8
 10
39.713823
 20
18.070225
 30
0.0
 11
39.602854
 21
17.861971
 31
0.0
  0
ARC
  8
EXHAUST
 62
     8
 10
39.776108
 20
18.249271
 30
0.0
 40
0.02923
 50
349.688598
 51
169.688598
  0
LINE
  8
EXHAUST
 62
     8
 10
39.804867
 20
18.244039
 30
0.0
 11
39.729101
 21
17.827597
 31
0.0
  0
LINE
  8
EXHAUST
 62
     8
 10
39.74735
 20
18.254503
 30
0.0
 11
39.671584
 21
17.838061
 31
0.0
  0
ARC
  8
EXHAUST
 62
     8
 10
39.453772
 20
17.918603
 30
0.0
 40
0.02923
 50
169.688054
 51
349.689487
  0
LINE
  8
EXHAUST
 62
     8
 10
39.627026
 20
18.305904
 30
0.0
 11
39.516057
 21
18.097649
 31
0.0
  0
LINE
  8
EXHAUST
 62
     8
 10
39.590538
 20
18.113112
 30
0.0
 11
39.479568
 21
17.904857
 31
0.0
  0
ARC
  8
EXHAUST
 62
     8
 10
39.652823
 20
18.292158
 30
0.0
 40
0.02923
 50
349.688598
 51
169.688598
  0
LINE
  8
EXHAUST
 62
     8
 10
39.681581
 20
18.286926
 30
0.0
 11
39.605815
 21
17.870484
 31
0.0
  0
LINE
  8
EXHAUST
 62
     8
 10
39.624065
 20
18.29739
 30
0.0
 11
39.548299
 21
17.880948
 31
0.0
  0
ARC
  8
EXHAUST
 62
     8
 10
39.330486
 20
17.96149
 30
0.0
 40
0.02923
 50
169.688054
 51
349.689487
  0
LINE
  8
EXHAUST
 62
     8
 10
39.503741
 20
18.348791
 30
0.0
 11
39.392771
 21
18.140536
 31
0.0
  0
LINE
  8
EXHAUST
 62
     8
 10
39.467252
 20
18.155999
 30
0.0
 11
39.356282
 21
17.947744
 31
0.0
  0
ARC
  8
EXHAUST
 62
     8
 10
39.529537
 20
18.335045
 30
0.0
 40
0.02923
 50
349.688598
 51
169.688598
  0
LINE
  8
EXHAUST
 62
     8
 10
39.558295
 20
18.329813
 30
0.0
 11
39.482529
 21
17.91337
 31
0.0
  0
LINE
  8
EXHAUST
 62
     8
 10
39.500779
 20
18.340277
 30
0.0
 11
39.425013
 21
17.923835
 31
0.0
  0
ARC
  8
EXHAUST
 62
     8
 10
39.2072
 20
18.004377
 30
0.0
 40
0.02923
 50
169.688054
 51
349.689487
  0
LINE
  8
EXHAUST
 62
     8
 10
39.380455
 20
18.391677
 30
0.0
 11
39.269486
 21
18.183423
 31
0.0
  0
LINE
  8
EXHAUST
 62
     8
 10
39.343967
 20
18.198885
 30
0.0
 11
39.232997
 21
17.990631
 31
0.0
  0
ARC
  8
EXHAUST
 62
     8
 10
39.406252
 20
18.377931
 30
0.0
 40
0.02923
 50
349.688598
 51
169.688598
  0
LINE
  8
EXHAUST
 62
     8
 10
39.43501
 20
18.372699
 30
0.0
 11
39.359244
 21
17.956257
 31
0.0
  0
LINE
  8
EXHAUST
 62
     8
 10
39.377494
 20
18.383164
 30
0.0
 11
39.301728
 21
17.966721
 31
0.0
  0
ARC
  8
FPEG
 10
37.263088
 20
24.369817
 30
0.0
 40
0.531262
 50
123.852802
 51
130.96153
  0
ARC
  8
FPEG
 10
37.854725
 20
24.6538
 30
0.0
 40
0.125
 50
123.852802
 51
167.578282
  0
ARC
  8
FPEG
 10
39.937111
 20
23.806527
 30
0.0
 40
0.125
 50
255.776856
 51
305.328462
  0
ARC
  8
FPEG
 10
40.1305
 20
25.784974
 30
0.0
 40
0.125
 50
4.411776
 51
65.062987
  0
ARC
  8
FPEG
 10
39.865264
 20
25.908301
 30
0.0
 40
0.125
 50
65.062987
 51
123.852802
  0
LINE
  8
FPEG
 10
39.906398
 20
23.685358
 30
0.0
 11
39.001696
 21
23.906711
 31
0.0
  0
LINE
  8
FPEG
 10
40.255129
 20
25.794589
 30
0.0
 11
40.375488
 21
24.234586
 31
0.0
  0
LINE
  8
FPEG
 10
39.795631
 20
26.01211
 30
0.0
 11
37.785092
 21
24.757609
 31
0.0
  0
LINE
  8
FPEG
 10
40.145093
 20
23.800727
 30
0.0
 11
40.009394
 21
23.704545
 31
0.0
  0
LINE
  8
FPEG
 10
39.917966
 20
26.021647
 30
0.0
 11
40.183202
 21
25.89832
 31
0.0
  0
LINE
  8
FPEG
 10
40.4402
 20
23.034245
 30
0.0
 11
37.132558
 21
23.85484
 31
0.0
  0
LINE
  8
FPEG
 10
40.080267
 20
26.805105
 30
0.0
 11
36.967143
 21
24.811015
 31
0.0
  0
LINE
  8
FPEG
 10
40.701907
 20
26.503686
 30
0.0
 11
40.883591
 21
24.14882
 31
0.0
  0
ARC
  8
FPEG
 10
37.263088
 20
24.369817
 30
0.0
 40
0.4
 50
194.376676
 51
333.392269
  0
LINE
  8
EXHAUST
 62
     8
 10
39.254208
 20
18.42605
 30
0.0
 11
39.178442
 21
18.009608
 31
0.0
  0
LINE
  8
EXHAUST
 62
     8
 10
39.311724
 20
18.415586
 30
0.0
 11
39.235958
 21
17.999144
 31
0.0
  0
ARC
  8
EXHAUST
 62
     8
 10
39.282966
 20
18.420818
 30
0.0
 40
0.02923
 50
349.688598
 51
169.688598
  0
LINE
  8
EXHAUST
 62
     8
 10
39.25717
 20
18.434564
 30
0.0
 11
39.1462
 21
18.22631
 31
0.0
  0
LINE
  8
EXHAUST
 62
     8
 10
39.220681
 20
18.241772
 30
0.0
 11
39.109711
 21
18.033518
 31
0.0
  0
LINE
  8
EXHAUST
 62
     8
 10
39.130923
 20
18.468938
 30
0.0
 11
39.055157
 21
18.052496
 31
0.0
  0
LINE
  8
EXHAUST
 62
     8
 10
39.188439
 20
18.458473
 30
0.0
 11
39.112673
 21
18.042031
 31
0.0
  0
ARC
  8
EXHAUST
 62
     8
 10
39.159681
 20
18.463706
 30
0.0
 40
0.02923
 50
349.688598
 51
169.688598
  0
ARC
  8
EXHAUST
 62
     8
 10
39.083915
 20
18.047263
 30
0.0
 40
0.02923
 50
169.688054
 51
349.689487
  0
LINE
  8
EXHAUST
 62
     8
 10
39.133884
 20
18.477451
 30
0.0
 11
39.018658
 21
18.261209
 31
0.0
  0
LINE
  8
EXHAUST
 62
     8
 10
39.097396
 20
18.284659
 30
0.0
 11
38.986426
 21
18.076405
 31
0.0
  0
LINE
  8
EXHAUST
 62
     8
 10
38.959904
 20
18.24946
 30
0.0
 11
38.931872
 21
18.095383
 31
0.0
  0
LINE
  8
EXHAUST
 62
     8
 10
39.017894
 20
18.241602
 30
0.0
 11
38.989388
 21
18.084919
 31
0.0
  0
ARC
  8
EXHAUST
 62
     8
 10
38.96063
 20
18.090151
 30
0.0
 40
0.02923
 50
169.688054
 51
349.689487
  0
ARC
  8
RWHEEL
 62
     8
 10
21.728523
 20
20.961851
 30
0.0
 40
10.179128
 50
24.472327
 51
67.956911
  0
ARC
  8
RWHEEL
 10
21.728523
 20
20.961851
 30
0.0
 40
12.200676
 50
11.200769
 51
63.858258
  0
CIRCLE
  8
RWHEEL
 62
     8
 10
21.728523
 20
20.961851
 30
0.0
 40
0.258052
  0
CIRCLE
  8
RWHEEL
 62
     8
 10
21.728523
 20
20.961851
 30
0.0
 40
0.410881
  0
CIRCLE
  8
RWHEEL
 10
21.728523
 20
20.961851
 30
0.0
 40
1.041627
  0
CIRCLE
  8
RWHEEL
 10
21.728523
 20
20.961851
 30
0.0
 40
0.67776
  0
LINE
  8
RWHEEL
 10
21.155034
 20
20.895334
 30
0.0
 11
21.499384
 21
20.431937
 31
0.0
  0
LINE
  8
RWHEEL
 10
21.384173
 20
21.425248
 30
0.0
 11
21.155034
 21
20.895334
 31
0.0
  0
LINE
  8
RWHEEL
 10
21.957662
 20
21.491765
 30
0.0
 11
21.384173
 21
21.425248
 31
0.0
  0
LINE
  8
RWHEEL
 10
22.302012
 20
21.028368
 30
0.0
 11
21.957662
 21
21.491765
 31
0.0
  0
LINE
  8
RWHEEL
 10
22.072873
 20
20.498454
 30
0.0
 11
22.302012
 21
21.028368
 31
0.0
  0
LINE
  8
RWHEEL
 10
21.499384
 20
20.431937
 30
0.0
 11
22.072873
 21
20.498454
 31
0.0
  0
CIRCLE
  8
RWHEEL
 62
     1
 10
21.728523
 20
20.961851
 30
0.0
 40
3.125
  0
LINE
  8
RWHEEL
 62
     1
 10
21.350899
 20
24.063951
 30
0.0
 11
26.277839
 21
24.663716
 31
0.0
  0
LINE
  8
RWHEEL
 62
     1
 10
25.57012
 20
22.595824
 30
0.0
 11
28.703187
 21
22.304113
 31
0.0
  0
LINE
  8
RWHEEL
 62
     1
 10
24.944892
 20
22.35274
 30
0.0
 11
28.87264
 21
21.987038
 31
0.0
  0
LINE
  8
RWHEEL
 62
     1
 10
25.563408
 20
20.58374
 30
0.0
 11
27.281312
 21
20.294372
 31
0.0
  0
ARC
  8
RWHEEL
 62
     1
 10
28.59194
 20
21.109281
 30
0.0
 40
1.2
 50
1.230557
 51
84.680687
  0
ARC
  8
RWHEEL
 62
     1
 10
26.949108
 20
18.322155
 30
0.0
 40
2.0
 50
333.177372
 51
80.438724
  0
ARC
  8
RWHEEL
 62
     1
 10
28.918993
 20
22.484885
 30
0.0
 40
0.5
 50
264.680687
 51
311.712926
  0
ARC
  8
RWHEEL
 62
     1
 10
20.360798
 20
20.036133
 30
0.0
 40
9.494674
 50
6.646342
 51
15.804823
  0
ARC
  8
RWHEEL
 62
     1
 10
28.598641
 20
20.896866
 30
0.0
 40
1.2
 50
353.551563
 51
67.429312
  0
ARC
  8
RWHEEL
 62
     1
 10
25.438831
 20
19.844159
 30
0.0
 40
0.75
 50
80.438724
 51
163.235612
  0
ARC
  8
RWHEEL
 62
     1
 10
25.500591
 20
21.849054
 30
0.0
 40
0.75
 50
84.680687
 51
193.235595
  0
LINE
  8
FEND
 10
64.229922
 20
48.874045
 30
0.0
 11
64.953787
 21
47.248218
 31
0.0
  0
LINE
  8
FEND
 10
65.775641
 20
49.562243
 30
0.0
 11
66.667553
 21
47.558976
 31
0.0
  0
ARC
  8
SEAT
 10
25.763738
 20
41.65565
 30
0.0
 40
1.25
 50
22.899393
 51
75.403838
  0
LINE
  8
GAUGES
 10
72.758823
 20
43.353524
 30
0.0
 11
72.871576
 21
43.288819
 31
0.0
  0
ARC
  8
GAUGES
 10
72.848415
 20
43.509643
 30
0.0
 40
0.18
 50
150.149973
 51
240.149973
  0
LINE
  8
GAUGES
 10
72.536742
 20
43.892337
 30
0.0
 11
72.671874
 21
43.81479
 31
0.0
  0
LINE
  8
GAUGES
 10
72.742961
 20
43.687523
 30
0.0
 11
72.661009
 21
43.795857
 31
0.0
  0
LINE
  8
GAUGES
 10
72.493881
 20
43.941403
 30
0.0
 11
72.484701
 21
43.963977
 31
0.0
  0
ARC
  8
GAUGES
 10
72.586515
 20
43.97907
 30
0.0
 40
0.1
 50
202.128013
 51
240.149973
  0
ARC
  8
GAUGES
 10
72.577336
 20
44.001645
 30
0.0
 40
0.1
 50
150.149973
 51
202.128013
  0
ARC
  8
RWHEEL
 62
     1
 10
21.404274
 20
26.802858
 30
0.0
 40
2.0
 50
93.177372
 51
200.438724
  0
ARC
  8
FRAME
 62
     8
 10
43.325026
 20
26.195024
 30
0.0
 40
0.04
 50
267.0
 51
348.780732
  0
ARC
  8
FRAME
 62
     8
 10
41.404993
 20
26.295649
 30
0.0
 40
0.04
 50
184.411776
 51
267.0
  0
ARC
  8
FRAME
 62
     8
 10
41.317533
 20
27.429243
 30
0.0
 40
0.04
 50
117.704583
 51
184.411776
  0
ARC
  8
FRAME
 62
     8
 10
43.831713
 20
28.749474
 30
0.0
 40
0.04
 50
348.780732
 51
117.704583
  0
LINE
  8
FRAME
 10
44.651658
 20
29.225218
 30
0.0
 11
66.438057
 21
40.665556
 31
0.0
  0
LINE
  8
FRAME
 62
     8
 10
43.322932
 20
26.155079
 30
0.0
 11
41.4029
 21
26.255704
 31
0.0
  0
LINE
  8
FRAME
 62
     8
 10
41.277652
 20
27.426166
 30
0.0
 11
41.365111
 21
26.292572
 31
0.0
  0
LINE
  8
FRAME
 62
     8
 10
43.364262
 20
26.187241
 30
0.0
 11
43.870949
 21
28.741691
 31
0.0
  0
LINE
  8
MOTOR
 10
45.856662
 20
33.933614
 30
0.0
 11
46.101984
 21
34.735568
 31
0.0
  0
CIRCLE
  8
MOTOR
 10
46.482044
 20
34.516941
 30
0.0
 40
0.245
  0
LINE
  8
MOTOR
 62
     8
 10
46.272332
 20
34.527932
 30
0.0
 11
46.36767
 21
34.340821
 31
0.0
  0
LINE
  8
MOTOR
 62
     8
 10
46.386706
 20
34.704053
 30
0.0
 11
46.272332
 21
34.527932
 31
0.0
  0
LINE
  8
MOTOR
 62
     8
 10
46.596418
 20
34.693062
 30
0.0
 11
46.386706
 21
34.704053
 31
0.0
  0
LINE
  8
MOTOR
 62
     8
 10
46.691756
 20
34.505951
 30
0.0
 11
46.596418
 21
34.693062
 31
0.0
  0
LINE
  8
MOTOR
 62
     8
 10
46.577382
 20
34.32983
 30
0.0
 11
46.691756
 21
34.505951
 31
0.0
  0
LINE
  8
MOTOR
 62
     8
 10
46.36767
 20
34.340821
 30
0.0
 11
46.577382
 21
34.32983
 31
0.0
  0
ARC
  8
MOTOR
 10
46.482044
 20
34.516941
 30
0.0
 40
0.245
 50
16.329395
 51
142.914105
  0
ARC
  8
MOTOR
 10
46.497761
 20
34.262709
 30
0.0
 40
0.5
 50
30.63206
 51
143.36794
  0
LINE
  8
MOTOR
 10
46.096519
 20
34.561046
 30
0.0
 11
46.015098
 21
34.451541
 31
0.0
  0
LINE
  8
MOTOR
 10
46.927989
 20
34.51747
 30
0.0
 11
47.274017
 21
33.933116
 31
0.0
  0
ARC
  8
EXHAUST
 10
46.461794
 20
33.576431
 30
0.0
 40
0.702684
 50
22.65741
 51
176.533137
  0
LINE
  8
MOTOR
 10
45.58523
 20
33.046311
 30
0.0
 11
45.760396
 21
33.618923
 31
0.0
  0
ARC
  8
FEND
 62
     8
 10
64.964117
 20
46.10898
 30
0.0
 40
0.722771
 50
129.243647
 51
138.529547
  0
ARC
  8
FEND
 62
     8
 10
64.415867
 20
45.864884
 30
0.0
 40
0.722771
 50
89.470453
 51
138.529547
  0
LINE
  8
FEND
 62
     8
 10
63.907357
 20
46.429651
 30
0.0
 11
64.484994
 21
46.686832
 31
0.0
  0
ARC
  8
FEND
 62
     8
 10
63.93389
 20
46.370059
 30
0.0
 40
0.065232
 50
114.0
 51
204.0
  0
LINE
  8
FEND
 62
     8
 10
64.091862
 20
45.854869
 30
0.0
 11
63.874297
 21
46.343527
 31
0.0
  0
LINE
  8
FEND
 62
     8
 10
64.640112
 20
46.098966
 30
0.0
 11
64.422547
 21
46.587623
 31
0.0
  0
LINE
  8
FEND
 62
     8
 10
64.075418
 20
45.847548
 30
0.0
 11
65.328925
 21
46.405645
 31
0.0
  0
LINE
  8
FEND
 62
     8
 10
64.067535
 20
45.791495
 30
0.0
 11
64.060213
 21
45.807939
 31
0.0
  0
ARC
  8
FEND
 62
     8
 10
64.08762
 20
45.820141
 30
0.0
 40
0.03
 50
114.0
 51
204.0
  0
ARC
  8
BARS
 10
68.39622
 20
43.883366
 30
0.0
 40
0.25
 50
354.179307
 51
3.553619
  0
LINE
  8
BARS
 10
68.644931
 20
43.858013
 30
0.0
 11
68.582249
 21
43.243125
 31
0.0
  0
LINE
  8
BARS
 10
68.629968
 20
44.1042
 30
0.0
 11
68.576357
 21
43.578294
 31
0.0
  0
LINE
  8
FRAME
 10
66.543168
 20
41.003123
 30
0.0
 11
65.867041
 21
42.290705
 31
0.0
  0
ARC
  8
GAUGES
 10
75.419607
 20
42.706149
 30
0.0
 40
0.25
 50
271.278072
 51
330.149973
  0
ARC
  8
GAUGES
 10
74.972725
 20
42.696179
 30
0.0
 40
0.25
 50
240.149973
 51
271.278072
  0
LINE
  8
GAUGES
 10
75.425183
 20
42.456211
 30
0.0
 11
74.978302
 21
42.446241
 31
0.0
  0
LINE
  8
GAUGES
 10
73.011833
 20
43.533227
 30
0.0
 11
74.848292
 21
42.479346
 31
0.0
  0
LINE
  8
GAUGES
 62
     8
 10
74.913611
 20
42.453268
 30
0.0
 11
75.678835
 21
43.786723
 31
0.0
  0
LINE
  8
GAUGES
 10
75.63644
 20
42.581716
 30
0.0
 11
75.795714
 21
42.859262
 31
0.0
  0
LINE
  8
GAUGES
 10
72.490602
 20
44.051418
 30
0.0
 11
73.346944
 21
45.543652
 31
0.0
  0
LINE
  8
GAUGES
 10
72.661009
 20
43.795857
 30
0.0
 11
73.609349
 21
45.448404
 31
0.0
  0
LINE
  8
GAUGES
 10
72.871576
 20
43.288819
 30
0.0
 11
74.019984
 21
45.289999
 31
0.0
  0
LINE
  8
GAUGES
 10
72.692295
 20
43.599235
 30
0.0
 11
73.727903
 21
45.403853
 31
0.0
  0
LINE
  8
RADIATOR
 10
56.555727
 20
22.814968
 30
0.0
 11
57.820173
 21
24.081801
 31
0.0
  0
ARC
  8
RADIATOR
 10
55.543454
 20
29.076707
 30
0.0
 40
4.0
 50
321.637336
 51
340.335131
  0
LINE
  8
RADIATOR
 10
59.310163
 20
27.730635
 30
0.0
 11
59.655009
 21
28.695618
 31
0.0
  0
LINE
  8
FRAME
 10
65.252768
 20
39.580462
 30
0.0
 11
64.373285
 21
38.263536
 31
0.0
  0
LINE
  8
FRAME
 10
66.408697
 20
38.808498
 30
0.0
 11
66.370648
 21
38.751525
 31
0.0
  0
LINE
  8
RADIATOR
 10
59.525683
 20
36.471028
 30
0.0
 11
59.236752
 21
36.884051
 31
0.0
  0
ARC
  8
RADIATOR
 10
61.367785
 20
37.57109
 30
0.0
 40
2.14
 50
248.320332
 51
257.03706
  0
ARC
  8
EXHAUST
 10
58.496498
 20
30.114966
 30
0.0
 40
3.75
 50
354.684231
 51
13.462622
  0
LINE
  8
MOTOR
 10
46.995901
 20
35.030576
 30
0.0
 11
46.101984
 21
34.735568
 31
0.0
  0
ARC
  8
REND
 10
20.708472
 20
26.386807
 30
0.0
 40
0.1
 50
281.648928
 51
3.95301
  0
ARC
  8
REND
 10
20.768989
 20
26.087649
 30
0.0
 40
0.1
 50
11.189903
 51
101.515112
  0
ARC
  8
REND
 10
20.555472
 20
26.04415
 30
0.0
 40
0.1
 50
101.515112
 51
191.459981
  0
LINE
  8
REND
 10
20.867088
 20
26.107055
 30
0.0
 11
20.920029
 21
25.839435
 31
0.0
  0
LINE
  8
REND
 10
20.53551
 20
26.142137
 30
0.0
 11
20.749026
 21
26.185636
 31
0.0
  0
LINE
  8
REND
 10
20.507673
 20
25.77662
 30
0.0
 11
20.457466
 21
26.024281
 31
0.0
  0
CIRCLE
  8
REND
 10
19.88135
 20
25.831409
 30
0.0
 40
0.190728
  0
LINE
  8
REND
 10
20.793917
 20
26.600882
 30
0.0
 11
20.808234
 21
26.393701
 31
0.0
  0
LINE
  8
REND
 10
20.728663
 20
26.288867
 30
0.0
 11
19.551867
 21
26.046258
 31
0.0
  0
LINE
  8
REND
 10
24.800327
 20
24.772511
 30
0.0
 11
24.648631
 21
24.675861
 31
0.0
  0
LINE
  8
REND
 10
25.125571
 20
24.603216
 30
0.0
 11
24.800327
 21
24.772511
 31
0.0
  0
LINE
  8
REND
 10
25.129039
 20
24.523871
 30
0.0
 11
25.125571
 21
24.603216
 31
0.0
  0
CIRCLE
  8
REND
 10
21.268218
 20
26.253046
 30
0.0
 40
0.190728
  0
ARC
  8
REND
 10
20.359183
 20
24.62389
 30
0.0
 40
0.25
 50
302.8556
 51
357.028926
  0
LINE
  8
REND
 10
20.494814
 20
24.41388
 30
0.0
 11
20.258828
 21
24.261473
 31
0.0
  0
ARC
  8
REND
 10
20.904139
 20
25.477111
 30
0.0
 40
0.25
 50
101.648928
 51
177.028926
  0
LINE
  8
REND
 10
17.968979
 20
25.112214
 30
0.0
 11
17.741651
 21
24.888441
 31
0.0
  0
LINE
  8
REND
 10
20.654475
 20
25.490069
 30
0.0
 11
20.608847
 21
24.610933
 31
0.0
  0
LINE
  8
REND
 10
21.356342
 20
25.825595
 30
0.0
 11
20.853661
 21
25.721962
 31
0.0
  0
LINE
  8
REND
 10
21.180095
 20
26.680497
 30
0.0
 11
19.461888
 21
26.32627
 31
0.0
  0
ARC
  8
REND
 10
22.332654
 20
25.69899
 30
0.0
 40
0.275
 50
340.417566
 51
185.046957
  0
ARC
  8
REND
 10
23.7519
 20
24.960249
 30
0.0
 40
0.275
 50
34.562943
 51
91.753949
  0
ARC
  8
REND
 10
21.268218
 20
26.253046
 30
0.0
 40
0.43644
 50
281.648928
 51
101.648919
  0
ARC
  8
REND
 10
24.816336
 20
24.406194
 30
0.0
 40
0.43644
 50
17.372832
 51
127.674542
  0
INSERT
  8
REND
  2
HEXHEAD
 10
21.268218
 20
26.253046
 30
0.0
 41
0.55
 42
0.55
 50
332.502298
 43
0.55
  0
ARC
  8
REND
 10
21.268218
 20
26.253046
 30
0.0
 40
0.56
 50
62.502298
 51
140.447139
  0
ARC
  8
REND
 10
24.816336
 20
24.406194
 30
0.0
 40
0.56
 50
15.053263
 51
62.502298
  0
LINE
  8
REND
 10
21.526778
 20
26.749782
 30
0.0
 11
25.074895
 21
24.90293
 31
0.0
  0
LINE
  8
REND
 10
21.009659
 20
25.75631
 30
0.0
 11
21.200851
 21
25.656791
 31
0.0
  0
LINE
  8
BARS
 62
     8
 10
69.183541
 20
43.467116
 30
0.0
 11
69.260219
 21
43.344049
 31
0.0
  0
LINE
  8
BARS
 62
     8
 10
69.077778
 20
43.636864
 30
0.0
 11
69.098931
 21
43.602914
 31
0.0
  0
ARC
  8
BARS
 62
     8
 10
69.137117
 20
43.532449
 30
0.0
 40
0.06
 50
346.925331
 51
76.925331
  0
LINE
  8
BARS
 62
     8
 10
69.183541
 20
43.467116
 30
0.0
 11
69.195561
 21
43.518875
 31
0.0
  0
LINE
  8
BARS
 62
     8
 10
69.098931
 20
43.602914
 30
0.0
 11
69.15069
 21
43.590893
 31
0.0
  0
LINE
  8
BARS
 62
     8
 10
68.993168
 20
43.772662
 30
0.0
 11
69.044927
 21
43.760641
 31
0.0
  0
LINE
  8
BARS
 62
     8
 10
69.077778
 20
43.636864
 30
0.0
 11
69.089799
 21
43.688623
 31
0.0
  0
ARC
  8
BARS
 62
     8
 10
69.031354
 20
43.702196
 30
0.0
 40
0.06
 50
346.925331
 51
76.925331
  0
LINE
  8
MOTOR
 10
45.92098
 20
29.756368
 30
0.0
 11
45.869191
 21
29.864561
 31
0.0
  0
ARC
  8
MOTOR
 10
47.634755
 20
30.57672
 30
0.0
 40
1.9
 50
205.579555
 51
247.063186
  0
LINE
  8
MOTOR
 10
46.914326
 20
28.818466
 30
0.0
 11
46.894295
 21
28.826943
 31
0.0
  0
ARC
  8
MOTOR
 10
47.634755
 20
30.57672
 30
0.0
 40
1.5
 50
205.579555
 51
247.063186
  0
LINE
  8
MOTOR
 10
46.281775
 20
29.929074
 30
0.0
 11
46.223577
 21
30.050654
 31
0.0
  0
LINE
  8
MOTOR
 10
47.057363
 20
29.192278
 30
0.0
 11
47.050181
 21
29.195317
 31
0.0
  0
CIRCLE
  8
MOTOR
 10
47.730904
 20
29.388778
 30
0.0
 40
0.245
  0
LINE
  8
MOTOR
 62
     8
 10
47.521191
 20
29.399768
 30
0.0
 11
47.616529
 21
29.212657
 31
0.0
  0
LINE
  8
MOTOR
 62
     8
 10
47.635566
 20
29.575889
 30
0.0
 11
47.521191
 21
29.399768
 31
0.0
  0
LINE
  8
MOTOR
 62
     8
 10
47.845278
 20
29.564899
 30
0.0
 11
47.635566
 21
29.575889
 31
0.0
  0
LINE
  8
MOTOR
 62
     8
 10
47.940616
 20
29.377787
 30
0.0
 11
47.845278
 21
29.564899
 31
0.0
  0
LINE
  8
MOTOR
 62
     8
 10
47.826242
 20
29.201667
 30
0.0
 11
47.940616
 21
29.377787
 31
0.0
  0
LINE
  8
MOTOR
 62
     8
 10
47.616529
 20
29.212657
 30
0.0
 11
47.826242
 21
29.201667
 31
0.0
  0
ARC
  8
MOTOR
 10
48.160547
 20
28.555879
 30
0.0
 40
1.273584
 50
23.498719
 51
189.932636
  0
LINE
  8
FRAME
 10
42.914283
 20
22.376781
 30
0.0
 11
42.801341
 21
19.462947
 31
0.0
  0
LINE
  8
FRAME
 10
40.750483
 20
23.082787
 30
0.0
 11
41.345195
 21
22.650758
 31
0.0
  0
LINE
  8
FRAME
 10
41.360049
 20
22.458235
 30
0.0
 11
42.914283
 21
22.376781
 31
0.0
  0
ARC
  8
RWHEEL
 62
     1
 10
21.728523
 20
20.961851
 30
0.0
 40
9.15
 50
354.905562
 51
5.510566
  0
ARC
  8
RWHEEL
 62
     1
 10
21.728523
 20
20.961851
 30
0.0
 40
8.95
 50
355.02722
 51
6.438424
  0
ARC
  8
RWHEEL
 62
     1
 10
21.728523
 20
20.961851
 30
0.0
 40
8.425
 50
355.374194
 51
9.148255
  0
ARC
  8
RWHEEL
 62
     1
 10
21.728523
 20
20.961851
 30
0.0
 40
8.065
 50
355.638372
 51
11.282776
  0
LINE
  8
TAIL
 62
     8
 10
12.885783
 20
45.082842
 30
0.0
 11
12.67169
 21
45.094062
 31
0.0
  0
LINE
  8
TAIL
 62
     8
 10
12.954594
 20
44.959973
 30
0.0
 11
12.56015
 21
44.980645
 31
0.0
  0
LINE
  8
TAIL
 62
     8
 10
12.97382
 20
44.839702
 30
0.0
 11
12.44916
 21
44.867199
 31
0.0
  0
LINE
  8
TAIL
 62
     8
 10
12.954119
 20
44.721472
 30
0.0
 11
12.33817
 21
44.753752
 31
0.0
  0
LINE
  8
TAIL
 62
     8
 10
12.890346
 20
44.605551
 30
0.0
 11
12.22718
 21
44.640306
 31
0.0
  0
LINE
  8
TAIL
 62
     8
 10
12.781568
 20
44.491989
 30
0.0
 11
12.116191
 21
44.52686
 31
0.0
  0
LINE
  8
TAIL
 62
     8
 10
12.670578
 20
44.378543
 30
0.0
 11
12.005201
 21
44.413414
 31
0.0
  0
LINE
  8
TAIL
 62
     8
 10
12.559588
 20
44.265096
 30
0.0
 11
11.894211
 21
44.299967
 31
0.0
  0
LINE
  8
TAIL
 62
     8
 10
12.448598
 20
44.15165
 30
0.0
 11
11.783221
 21
44.186521
 31
0.0
  0
LINE
  8
TAIL
 62
     8
 10
12.337609
 20
44.038204
 30
0.0
 11
11.672231
 21
44.073075
 31
0.0
  0
LINE
  8
TAIL
 62
     8
 10
12.226619
 20
43.924758
 30
0.0
 11
11.561242
 21
43.959629
 31
0.0
  0
LINE
  8
TAIL
 62
     8
 10
12.115629
 20
43.811311
 30
0.0
 11
11.450252
 21
43.846182
 31
0.0
  0
LINE
  8
TAIL
 62
     8
 10
12.004639
 20
43.697865
 30
0.0
 11
11.339262
 21
43.732736
 31
0.0
  0
LINE
  8
TAIL
 62
     8
 10
11.89365
 20
43.584419
 30
0.0
 11
11.228272
 21
43.61929
 31
0.0
  0
LINE
  8
TAIL
 62
     8
 10
11.78266
 20
43.470973
 30
0.0
 11
11.117283
 21
43.505844
 31
0.0
  0
LINE
  8
TAIL
 62
     8
 10
11.67167
 20
43.357526
 30
0.0
 11
11.043267
 21
43.39046
 31
0.0
  0
LINE
  8
TAIL
 62
     8
 10
11.523188
 20
43.246045
 30
0.0
 11
11.191624
 21
43.263422
 31
0.0
  0
ARC
  8
TAIL
 10
12.598824
 20
44.841431
 30
0.0
 40
0.375
 50
315.627085
 51
45.627085
  0
ARC
  8
TAIL
 10
11.375004
 20
43.590525
 30
0.0
 40
0.375
 50
225.627085
 51
315.627085
  0
LINE
  8
TAIL
 10
11.643055
 20
43.328278
 30
0.0
 11
12.866875
 21
44.579184
 31
0.0
  0
LINE
  8
TAIL
 10
12.861071
 20
45.109482
 30
0.0
 11
12.776176
 21
45.192539
 31
0.0
  0
LINE
  8
TAIL
 10
11.112757
 20
43.322474
 30
0.0
 11
11.023406
 21
43.40989
 31
0.0
  0
ARC
  8
RWHEEL
 62
     1
 10
21.728523
 20
20.961851
 30
0.0
 40
8.425
 50
87.613647
 51
355.374194
  0
ARC
  8
RWHEEL
 62
     1
 10
21.728523
 20
20.961851
 30
0.0
 40
7.65
 50
91.172331
 51
100.649229
  0
ARC
  8
RWHEEL
 62
     1
 10
21.728523
 20
20.961851
 30
0.0
 40
8.065
 50
89.279549
 51
355.638372
  0
ARC
  8
RWHEEL
 62
     1
 10
21.728523
 20
20.961851
 30
0.0
 40
7.85
 50
90.364983
 51
124.867756
  0
LINE
  8
FPEG
 62
     8
 10
40.328767
 20
23.432974
 30
0.0
 11
40.424105
 21
23.245863
 31
0.0
  0
LINE
  8
FPEG
 62
     8
 10
40.443141
 20
23.609095
 30
0.0
 11
40.328767
 21
23.432974
 31
0.0
  0
LINE
  8
FPEG
 62
     8
 10
40.652853
 20
23.598104
 30
0.0
 11
40.443141
 21
23.609095
 31
0.0
  0
LINE
  8
FPEG
 62
     8
 10
40.748191
 20
23.410993
 30
0.0
 11
40.652853
 21
23.598104
 31
0.0
  0
LINE
  8
FPEG
 62
     8
 10
40.633817
 20
23.234872
 30
0.0
 11
40.748191
 21
23.410993
 31
0.0
  0
LINE
  8
FPEG
 62
     8
 10
40.424105
 20
23.245863
 30
0.0
 11
40.633817
 21
23.234872
 31
0.0
  0
CIRCLE
  8
FPEG
 10
40.538479
 20
23.421983
 30
0.0
 40
0.31
  0
CIRCLE
  8
FPEG
 10
40.303092
 20
26.472916
 30
0.0
 40
0.31
  0
LINE
  8
FPEG
 62
     8
 10
40.188718
 20
26.296796
 30
0.0
 11
40.39843
 21
26.285805
 31
0.0
  0
LINE
  8
FPEG
 62
     8
 10
40.39843
 20
26.285805
 30
0.0
 11
40.512804
 21
26.461926
 31
0.0
  0
LINE
  8
FPEG
 62
     8
 10
40.512804
 20
26.461926
 30
0.0
 11
40.417466
 21
26.649037
 31
0.0
  0
LINE
  8
FPEG
 62
     8
 10
40.417466
 20
26.649037
 30
0.0
 11
40.207754
 21
26.660028
 31
0.0
  0
LINE
  8
FPEG
 62
     8
 10
40.207754
 20
26.660028
 30
0.0
 11
40.09338
 21
26.483907
 31
0.0
  0
LINE
  8
FPEG
 62
     8
 10
40.09338
 20
26.483907
 30
0.0
 11
40.188718
 21
26.296796
 31
0.0
  0
LINE
  8
FRAME
 10
40.167119
 20
26.870324
 30
0.0
 11
40.168712
 21
26.849669
 31
0.0
  0
ARC
  8
FPEG
 10
40.538479
 20
23.421983
 30
0.0
 40
0.4
 50
116.269262
 51
53.139283
  0
CIRCLE
  8
FPEG
 10
40.303092
 20
26.472916
 30
0.0
 40
0.4
  0
LINE
  8
FRAME
 62
     8
 10
41.298937
 20
27.464657
 30
0.0
 11
43.813117
 21
28.784888
 31
0.0
  0
LINE
  8
MOTOR
 10
44.353083
 20
37.585279
 30
0.0
 11
42.610312
 21
37.453836
 31
0.0
  0
ARC
  8
MOTOR
 10
44.165062
 20
40.078198
 30
0.0
 40
2.5
 50
274.313192
 51
300.173934
  0
LINE
  8
MOTOR
 10
47.278589
 20
38.996586
 30
0.0
 11
45.421629
 21
37.91694
 31
0.0
  0
ARC
  8
MOTOR
 10
44.165062
 20
40.078198
 30
0.0
 40
2.0
 50
274.313192
 51
300.173934
  0
LINE
  8
MOTOR
 10
44.315479
 20
38.083863
 30
0.0
 11
43.195958
 21
37.999426
 31
0.0
  0
LINE
  8
MOTOR
 10
46.663347
 20
39.217247
 30
0.0
 11
45.170316
 21
38.349191
 31
0.0
  0
LINE
  8
MOTOR
 10
44.878127
 20
33.23506
 30
0.0
 11
45.797888
 21
34.938055
 31
0.0
  0
ARC
  8
MOTOR
 10
47.227684
 20
34.165845
 30
0.0
 40
1.625
 50
99.823697
 51
151.627219
  0
ARC
  8
MOTOR
 10
47.227684
 20
34.165845
 30
0.0
 40
2.0
 50
99.610974
 51
144.748949
  0
LINE
  8
MOTOR
 10
44.775494
 20
33.83416
 30
0.0
 11
45.125232
 21
34.481722
 31
0.0
  0
LINE
  8
MOTOR
 10
45.050388
 20
34.399308
 30
0.0
 11
44.735373
 21
34.068359
 31
0.0
  0
ARC
  8
MOTOR
 10
43.33011
 20
36.036765
 30
0.0
 40
2.375
 50
316.412956
 51
345.458366
  0
LINE
  8
MOTOR
 10
46.054584
 20
37.081028
 30
0.0
 11
45.629028
 21
35.440442
 31
0.0
  0
LINE
  8
MOTOR
 10
46.372766
 20
37.711166
 30
0.0
 11
46.309857
 21
37.624
 31
0.0
  0
ARC
  8
MOTOR
 10
46.474125
 20
37.638014
 30
0.0
 40
0.125
 50
60.012969
 51
144.181464
  0
ARC
  8
MOTOR
 10
47.627528
 20
36.673017
 30
0.0
 40
1.625
 50
144.181464
 51
165.458366
  0
ARC
  8
MOTOR
 10
43.33011
 20
36.036765
 30
0.0
 40
2.0
 50
316.412956
 51
345.458366
  0
ARC
  8
MOTOR
 10
47.627528
 20
36.673017
 30
0.0
 40
2.0
 50
144.181464
 51
165.458366
  0
ARC
  8
MOTOR
 10
46.474125
 20
37.638014
 30
0.0
 40
0.5
 50
60.012969
 51
144.181464
  0
LINE
  8
MOTOR
 10
44.778765
 20
34.657854
 30
0.0
 11
44.656407
 21
34.529307
 31
0.0
  0
LINE
  8
MOTOR
 10
45.691597
 20
37.175184
 30
0.0
 11
45.266041
 21
35.534598
 31
0.0
  0
LINE
  8
MOTOR
 10
46.068688
 20
37.930624
 30
0.0
 11
46.005779
 21
37.843457
 31
0.0
  0
LINE
  8
MOTOR
 10
46.734601
 20
38.064981
 30
0.0
 11
46.724027
 21
38.071083
 31
0.0
  0
ARC
  8
MOTOR
 10
46.59728
 20
37.681768
 30
0.0
 40
0.09
 50
147.512271
 51
237.512271
  0
ARC
  8
MOTOR
 10
46.61415
 20
37.671026
 30
0.0
 40
0.09
 50
237.512271
 51
327.512271
  0
ARC
  8
MOTOR
 10
46.83974
 20
38.025299
 30
0.0
 40
0.09
 50
327.512271
 51
57.512271
  0
ARC
  8
MOTOR
 10
46.82287
 20
38.036041
 30
0.0
 40
0.09
 50
57.512271
 51
147.512271
  0
LINE
  8
MOTOR
 10
46.690066
 20
37.622685
 30
0.0
 11
46.915656
 21
37.976958
 31
0.0
  0
LINE
  8
MOTOR
 10
46.929231
 20
38.015735
 30
0.0
 11
47.401069
 21
37.715283
 31
0.0
  0
LINE
  8
MOTOR
 10
46.660671
 20
37.593982
 30
0.0
 11
47.13251
 21
37.29353
 31
0.0
  0
LINE
  8
MOTOR
 10
46.54894
 20
37.605853
 30
0.0
 11
46.56581
 21
37.59511
 31
0.0
  0
LINE
  8
MOTOR
 10
46.871211
 20
38.111957
 30
0.0
 11
46.888081
 21
38.101214
 31
0.0
  0
LINE
  8
MOTOR
 10
46.521365
 20
37.730109
 30
0.0
 11
46.746955
 21
38.084382
 31
0.0
  0
LINE
  8
MOTOR
 10
60.188051
 20
34.280556
 30
0.0
 11
59.705249
 21
34.602986
 31
0.0
  0
LINE
  8
MOTOR
 62
     8
 10
58.631781
 20
32.099444
 30
0.0
 11
58.602137
 21
32.072753
 31
0.0
  0
LINE
  8
MOTOR
 62
     8
 10
58.313511
 20
32.766926
 30
0.0
 11
58.304831
 21
32.75911
 31
0.0
  0
LINE
  8
MOTOR
 62
     8
 10
58.466465
 20
32.151765
 30
0.0
 11
58.365391
 21
32.060758
 31
0.0
  0
LINE
  8
MOTOR
 62
     8
 10
58.210505
 20
32.232776
 30
0.0
 11
58.365391
 21
32.060758
 31
0.0
  0
LINE
  8
MOTOR
 62
     8
 10
58.365391
 20
32.060758
 30
0.0
 11
58.602137
 21
32.072753
 31
0.0
  0
LINE
  8
MOTOR
 62
     8
 10
58.399442
 20
32.750103
 30
0.0
 11
58.597607
 21
32.928532
 31
0.0
  0
LINE
  8
MOTOR
 62
     8
 10
58.313511
 20
32.766926
 30
0.0
 11
58.311888
 21
32.756558
 31
0.0
  0
LINE
  8
MOTOR
 62
     8
 10
58.313511
 20
32.766926
 30
0.0
 11
58.424363
 21
32.772542
 31
0.0
  0
LINE
  8
MOTOR
 62
     8
 10
58.55463
 20
32.070346
 30
0.0
 11
58.453575
 21
31.979356
 31
0.0
  0
LINE
  8
MOTOR
 10
59.552593
 20
33.943822
 30
0.0
 11
58.662473
 21
33.142357
 31
0.0
  0
LINE
  8
MOTOR
 10
59.992919
 20
34.061369
 30
0.0
 11
59.972631
 21
34.064889
 31
0.0
  0
ARC
  8
MOTOR
 10
59.887158
 20
33.572249
 30
0.0
 40
0.5
 50
80.157114
 51
131.999887
  0
LINE
  8
FRAME
 62
     8
 10
43.05766
 20
36.950731
 30
0.0
 11
43.200516
 21
36.670361
 31
0.0
  0
LINE
  8
FRAME
 62
     8
 10
43.22904
 20
37.214633
 30
0.0
 11
43.05766
 21
36.950731
 31
0.0
  0
LINE
  8
FRAME
 62
     8
 10
43.543275
 20
37.198165
 30
0.0
 11
43.22904
 21
37.214633
 31
0.0
  0
LINE
  8
FRAME
 62
     8
 10
43.686131
 20
36.917794
 30
0.0
 11
43.543275
 21
37.198165
 31
0.0
  0
LINE
  8
FRAME
 62
     8
 10
43.514751
 20
36.653893
 30
0.0
 11
43.686131
 21
36.917794
 31
0.0
  0
LINE
  8
FRAME
 62
     8
 10
43.200516
 20
36.670361
 30
0.0
 11
43.514751
 21
36.653893
 31
0.0
  0
LINE
  8
FRAME
 62
     8
 10
43.124033
 20
35.419543
 30
0.0
 11
43.326513
 21
35.022154
 31
0.0
  0
LINE
  8
FRAME
 62
     8
 10
43.366942
 20
35.79359
 30
0.0
 11
43.124033
 21
35.419543
 31
0.0
  0
LINE
  8
FRAME
 62
     8
 10
43.812331
 20
35.770248
 30
0.0
 11
43.366942
 21
35.79359
 31
0.0
  0
LINE
  8
FRAME
 62
     8
 10
44.014811
 20
35.372859
 30
0.0
 11
43.812331
 21
35.770248
 31
0.0
  0
LINE
  8
FRAME
 62
     8
 10
43.771902
 20
34.998812
 30
0.0
 11
44.014811
 21
35.372859
 31
0.0
  0
LINE
  8
FRAME
 62
     8
 10
43.326513
 20
35.022154
 30
0.0
 11
43.771902
 21
34.998812
 31
0.0
  0
LINE
  8
FRAME
 62
     8
 10
44.831865
 20
28.894314
 30
0.0
 11
44.99863
 21
28.567018
 31
0.0
  0
LINE
  8
FRAME
 62
     8
 10
45.031929
 20
29.202386
 30
0.0
 11
44.831865
 21
28.894314
 31
0.0
  0
LINE
  8
FRAME
 62
     8
 10
45.398759
 20
29.183161
 30
0.0
 11
45.031929
 21
29.202386
 31
0.0
  0
LINE
  8
FRAME
 62
     8
 10
45.565524
 20
28.855865
 30
0.0
 11
45.398759
 21
29.183161
 31
0.0
  0
LINE
  8
FRAME
 62
     8
 10
45.36546
 20
28.547793
 30
0.0
 11
45.565524
 21
28.855865
 31
0.0
  0
LINE
  8
FRAME
 62
     8
 10
44.99863
 20
28.567018
 30
0.0
 11
45.36546
 21
28.547793
 31
0.0
  0
ARC
  8
MOTOR
 62
     8
 10
56.472581
 20
23.612782
 30
0.0
 40
0.28429
 50
2.470453
 51
51.529547
  0
ARC
  8
MOTOR
 62
     8
 10
56.579747
 20
23.402458
 30
0.0
 40
0.28429
 50
2.470453
 51
51.529547
  0
LINE
  8
MOTOR
 62
     8
 10
56.683951
 20
23.824148
 30
0.0
 11
56.874986
 21
23.449221
 31
0.0
  0
ARC
  8
MOTOR
 62
     8
 10
56.852124
 20
23.437573
 30
0.0
 40
0.025658
 50
297.0
 51
27.0
  0
ARC
  8
MOTOR
 62
     8
 10
56.66109
 20
23.8125
 30
0.0
 40
0.025658
 50
27.0
 51
117.0
  0
LINE
  8
MOTOR
 62
     8
 10
56.676309
 20
23.319194
 30
0.0
 11
56.863773
 21
23.414712
 31
0.0
  0
LINE
  8
MOTOR
 62
     8
 10
56.461978
 20
23.739844
 30
0.0
 11
56.649441
 21
23.835361
 31
0.0
  0
LINE
  8
MOTOR
 62
     8
 10
56.569144
 20
23.529519
 30
0.0
 11
56.756607
 21
23.625036
 31
0.0
  0
LINE
  8
MOTOR
 62
     8
 10
56.458764
 20
23.746152
 30
0.0
 11
56.679524
 21
23.312886
 31
0.0
  0
LINE
  8
MOTOR
 62
     8
 10
56.436584
 20
23.748094
 30
0.0
 11
56.668059
 21
23.293801
 31
0.0
  0
LINE
  8
MOTOR
 62
     8
 10
56.436584
 20
23.748094
 30
0.0
 11
56.442893
 21
23.751309
 31
0.0
  0
LINE
  8
MOTOR
 62
     8
 10
56.668059
 20
23.293801
 30
0.0
 11
56.674367
 21
23.297015
 31
0.0
  0
ARC
  8
MOTOR
 62
     8
 10
56.44825
 20
23.740795
 30
0.0
 40
0.0118
 50
27.0
 51
117.0
  0
ARC
  8
MOTOR
 62
     8
 10
56.66901
 20
23.307529
 30
0.0
 40
0.0118
 50
297.0
 51
27.0
  0
LINE
  8
MOTOR
 62
     8
 10
55.745967
 20
34.528598
 30
0.0
 11
55.800964
 21
34.515127
 31
0.0
  0
LINE
  8
MOTOR
 62
     8
 10
55.687249
 20
34.730222
 30
0.0
 11
55.745967
 21
34.528598
 31
0.0
  0
LINE
  8
MOTOR
 62
     8
 10
55.832501
 20
34.881885
 30
0.0
 11
55.687249
 21
34.730222
 31
0.0
  0
LINE
  8
MOTOR
 62
     8
 10
56.036471
 20
34.831925
 30
0.0
 11
55.832501
 21
34.881885
 31
0.0
  0
LINE
  8
MOTOR
 62
     8
 10
56.085255
 20
34.664413
 30
0.0
 11
56.036471
 21
34.831925
 31
0.0
  0
LINE
  8
MOTOR
 10
59.498653
 20
31.788828
 30
0.0
 11
59.395468
 21
31.857738
 31
0.0
  0
LINE
  8
MOTOR
 10
59.301665
 20
31.559634
 30
0.0
 11
59.145946
 21
31.663628
 31
0.0
  0
LINE
  8
MOTOR
 10
59.196605
 20
31.437397
 30
0.0
 11
59.057086
 21
31.530572
 31
0.0
  0
LINE
  8
MOTOR
 10
58.999616
 20
31.208203
 30
0.0
 11
56.794239
 21
32.681021
 31
0.0
  0
LINE
  8
MOTOR
 10
58.894556
 20
31.085966
 30
0.0
 11
56.246611
 21
32.854343
 31
0.0
  0
LINE
  8
MOTOR
 10
58.600931
 20
30.755364
 30
0.0
 11
55.23195
 21
33.005271
 31
0.0
  0
LINE
  8
MOTOR
 10
58.512518
 20
30.664097
 30
0.0
 11
55.26648
 21
32.8319
 31
0.0
  0
LINE
  8
MOTOR
 10
55.057517
 20
29.740344
 30
0.0
 11
54.777029
 21
29.927662
 31
0.0
  0
LINE
  8
MOTOR
 10
57.553492
 20
29.877201
 30
0.0
 11
54.762765
 21
31.740932
 31
0.0
  0
LINE
  8
MOTOR
 10
57.719753
 20
29.991033
 30
0.0
 11
54.71111
 21
32.000296
 31
0.0
  0
ARC
  8
MOTOR
 10
54.247489
 20
34.884231
 30
0.0
 40
6.37
 50
291.837213
 51
319.321567
  0
ARC
  8
MOTOR
 10
54.247489
 20
34.884231
 30
0.0
 40
6.0
 50
289.374923
 51
319.321567
  0
LINE
  8
MOTOR
 10
59.078368
 20
30.732182
 30
0.0
 11
59.906696
 21
31.695936
 31
0.0
  0
LINE
  8
MOTOR
 10
58.797767
 20
30.973353
 30
0.0
 11
59.523148
 21
31.817328
 31
0.0
  0
ARC
  8
MOTOR
 62
     8
 10
49.833017
 20
28.892054
 30
0.0
 40
0.12
 50
177.0
 51
267.0
  0
ARC
  8
MOTOR
 62
     8
 10
49.836157
 20
28.951972
 30
0.0
 40
0.12
 50
87.0
 51
177.0
  0
LINE
  8
MOTOR
 62
     8
 10
50.291868
 20
28.998185
 30
0.0
 11
50.281401
 21
28.798459
 31
0.0
  0
LINE
  8
MOTOR
 62
     8
 10
49.826737
 20
28.772219
 30
0.0
 11
49.921678
 21
28.767243
 31
0.0
  0
LINE
  8
MOTOR
 62
     8
 10
49.842438
 20
29.071808
 30
0.0
 11
49.937379
 21
29.066832
 31
0.0
  0
LINE
  8
MOTOR
 62
     8
 10
49.978077
 20
28.814356
 30
0.0
 11
50.281401
 21
28.798459
 31
0.0
  0
LINE
  8
MOTOR
 62
     8
 10
49.988545
 20
29.014082
 30
0.0
 11
50.291868
 21
28.998185
 31
0.0
  0
LINE
  8
MOTOR
 62
     8
 10
49.716322
 20
28.958252
 30
0.0
 11
49.713182
 21
28.898335
 31
0.0
  0
LINE
  8
MOTOR
 62
     8
 10
50.284018
 20
28.848391
 30
0.0
 11
53.177668
 21
28.696741
 31
0.0
  0
LINE
  8
MOTOR
 62
     8
 10
50.289252
 20
28.948254
 30
0.0
 11
53.182902
 21
28.796604
 31
0.0
  0
ARC
  8
MOTOR
 62
     8
 10
49.159668
 20
28.334003
 30
0.0
 40
0.179817
 50
17.348303
 51
156.651697
  0
LINE
  8
MOTOR
 62
     8
 10
48.95444
 20
29.183435
 30
0.0
 11
49.254028
 21
29.167734
 31
0.0
  0
LINE
  8
MOTOR
 62
     8
 10
48.95444
 20
29.183435
 30
0.0
 11
48.949206
 21
29.083572
 31
0.0
  0
LINE
  8
MOTOR
 62
     8
 10
49.254028
 20
29.167734
 30
0.0
 11
49.248795
 21
29.067871
 31
0.0
  0
LINE
  8
MOTOR
 62
     8
 10
49.560201
 20
28.767603
 30
0.0
 11
49.484101
 21
28.832352
 31
0.0
  0
ARC
  8
MOTOR
 62
     8
 10
49.380417
 20
28.710493
 30
0.0
 40
0.16
 50
49.607175
 51
87.0
  0
LINE
  8
MOTOR
 62
     8
 10
48.86333
 20
29.048018
 30
0.0
 11
49.396642
 21
29.020068
 31
0.0
  0
ARC
  8
MOTOR
 62
     8
 10
49.405015
 20
29.179849
 30
0.0
 40
0.16
 50
267.0
 51
304.392825
  0
LINE
  8
MOTOR
 62
     8
 10
49.577844
 20
29.104259
 30
0.0
 11
49.495394
 21
29.047819
 31
0.0
  0
ARC
  8
MOTOR
 62
     8
 10
49.380417
 20
28.710493
 30
0.0
 40
0.12
 50
49.607175
 51
82.764839
  0
ARC
  8
MOTOR
 62
     8
 10
49.405015
 20
29.179849
 30
0.0
 40
0.12
 50
267.0
 51
304.392825
  0
ARC
  8
MOTOR
 62
     8
 10
49.623033
 20
29.038244
 30
0.0
 40
0.08
 50
87.0
 51
124.392825
  0
LINE
  8
MOTOR
 62
     8
 10
49.62722
 20
29.118135
 30
0.0
 11
49.873158
 21
29.105246
 31
0.0
  0
ARC
  8
MOTOR
 62
     8
 10
49.868971
 20
29.025355
 30
0.0
 40
0.08
 50
357.0
 51
87.0
  0
LINE
  8
MOTOR
 62
     8
 10
49.948861
 20
29.021168
 30
0.0
 11
49.93787
 21
28.811456
 31
0.0
  0
ARC
  8
MOTOR
 62
     8
 10
49.85798
 20
28.815643
 30
0.0
 40
0.08
 50
267.0
 51
357.0
  0
LINE
  8
MOTOR
 62
     8
 10
49.607856
 20
28.748642
 30
0.0
 11
49.853793
 21
28.735753
 31
0.0
  0
ARC
  8
MOTOR
 62
     8
 10
49.612043
 20
28.828532
 30
0.0
 40
0.08
 50
229.607175
 51
267.0
  0
LINE
  8
MOTOR
 62
     8
 10
48.865423
 20
29.087963
 30
0.0
 11
48.862807
 21
29.038031
 31
0.0
  0
ARC
  8
MOTOR
 62
     8
 10
49.612043
 20
28.828532
 30
0.0
 40
0.12
 50
229.607175
 51
267.0
  0
ARC
  8
MOTOR
 62
     8
 10
49.623033
 20
29.038244
 30
0.0
 40
0.12
 50
87.0
 51
124.392825
  0
LINE
  8
MOTOR
 62
     8
 10
49.53428
 20
28.737138
 30
0.0
 11
49.45818
 21
28.801887
 31
0.0
  0
LINE
  8
MOTOR
 62
     8
 10
49.55525
 20
29.137266
 30
0.0
 11
49.472799
 21
29.080826
 31
0.0
  0
LINE
  8
MOTOR
 62
     8
 10
48.865423
 20
29.087963
 30
0.0
 11
49.398735
 21
29.060013
 31
0.0
  0
ARC
  8
MOTOR
 62
     8
 10
49.85798
 20
28.815643
 30
0.0
 40
0.12
 50
267.0
 51
357.0
  0
ARC
  8
MOTOR
 62
     8
 10
49.868971
 20
29.025355
 30
0.0
 40
0.12
 50
357.0
 51
87.0
  0
LINE
  8
MOTOR
 62
     8
 10
49.629314
 20
29.15808
 30
0.0
 11
49.875251
 21
29.145191
 31
0.0
  0
LINE
  8
MOTOR
 62
     8
 10
49.605762
 20
28.708697
 30
0.0
 11
49.8517
 21
28.695808
 31
0.0
  0
LINE
  8
MOTOR
 62
     8
 10
49.988806
 20
29.019075
 30
0.0
 11
49.977816
 21
28.809363
 31
0.0
  0
ARC
  8
MOTOR
 10
48.707494
 20
28.540478
 30
0.0
 40
0.12
 50
267.0
 51
0.725127
  0
ARC
  8
MOTOR
 10
49.560515
 20
28.495773
 30
0.0
 40
0.12
 50
187.501247
 51
267.0
  0
ARC
  8
MOTOR
 10
49.000699
 20
25.300693
 30
0.0
 40
3.27
 50
93.041776
 51
93.473032
  0
LINE
  8
MOTOR
 10
49.441542
 20
28.480107
 30
0.0
 11
49.371588
 21
29.011367
 31
0.0
  0
LINE
  8
MOTOR
 10
48.827485
 20
28.541996
 30
0.0
 11
48.821179
 21
29.040213
 31
0.0
  0
LINE
  8
MOTOR
 10
48.821179
 20
29.040213
 30
0.0
 11
49.371588
 21
29.011367
 31
0.0
  0
POLYLINE
  8
MOTOR
 66
     1
 10
0.0
 20
0.0
 30
0.0
  0
VERTEX
  8
MOTOR
 10
48.654607
 20
28.250521
 30
0.0
 42
0.00009
 50
207.167195
  0
VERTEX
  8
MOTOR
 10
48.654604
 20
28.250458
 30
0.0
 42
0.156036
 50
357.0
  0
VERTEX
  8
MOTOR
 10
48.681758
 20
28.147227
 30
0.0
 42
0.106684
 50
357.0
  0
VERTEX
  8
MOTOR
 10
48.790095
 20
28.037573
 30
0.0
 42
0.072691
 70
     2
 50
326.832805
  0
VERTEX
  8
MOTOR
 10
48.939543
 20
27.968354
 30
0.0
 42
0.059135
 50
326.832805
  0
VERTEX
  8
MOTOR
 10
49.138709
 20
27.934065
 30
0.0
 42
0.059135
 50
357.0
  0
VERTEX
  8
MOTOR
 10
49.340367
 20
27.947348
 30
0.0
 42
0.072691
 50
357.0
  0
VERTEX
  8
MOTOR
 10
49.496232
 20
28.000566
 30
0.0
 42
0.106684
 70
     2
 50
27.167195
  0
VERTEX
  8
MOTOR
 10
49.615437
 20
28.098295
 30
0.0
 42
0.156036
 50
27.167195
  0
VERTEX
  8
MOTOR
 10
49.653233
 20
28.198122
 30
0.0
 42
0.156036
 50
357.0
  0
SEQEND
  8
MOTOR
  0
LINE
  8
MOTOR
 10
48.663626
 20
28.422612
 30
0.0
 11
49.662256
 21
28.370276
 31
0.0
  0
LINE
  8
MOTOR
 10
48.656822
 20
28.29279
 30
0.0
 11
49.655452
 21
28.240454
 31
0.0
  0
LINE
  8
MOTOR
 10
48.663626
 20
28.422612
 30
0.0
 11
48.654604
 21
28.250458
 31
0.0
  0
LINE
  8
MOTOR
 10
49.662256
 20
28.370276
 30
0.0
 11
49.653233
 21
28.198122
 31
0.0
  0
POLYLINE
  8
MOTOR
 66
     1
 10
0.0
 20
0.0
 30
0.0
  0
VERTEX
  8
MOTOR
 10
44.431827
 20
25.644646
 30
0.0
 42
0.012639
 50
18.925543
  0
VERTEX
  8
MOTOR
 10
44.420795
 20
25.627649
 30
0.0
 42
0.104285
 50
18.925543
  0
VERTEX
  8
MOTOR
 10
44.271465
 20
25.208959
 30
0.0
 42
0.06513
 70
     2
 50
262.277922
  0
VERTEX
  8
MOTOR
 10
44.269206
 20
24.728122
 30
0.0
 42
0.051279
 50
262.277922
  0
VERTEX
  8
MOTOR
 10
44.406935
 20
24.134133
 30
0.0
 42
0.051279
 50
18.925543
  0
SEQEND
  8
MOTOR
  0
ARC
  8
MOTOR
 10
45.075287
 20
24.135621
 30
0.0
 40
0.06
 50
282.598331
 51
18.925543
  0
ARC
  8
MOTOR
 10
45.302313
 20
24.213463
 30
0.0
 40
0.06
 50
198.925543
 51
295.252756
  0
LINE
  8
MOTOR
 10
45.830962
 20
24.622396
 30
0.0
 11
45.771498
 21
24.443906
 31
0.0
  0
LINE
  8
MOTOR
 10
44.406935
 20
24.134133
 30
0.0
 11
44.563411
 21
24.029684
 31
0.0
  0
POLYLINE
  8
MOTOR
 66
     1
 10
0.0
 20
0.0
 30
0.0
  0
VERTEX
  8
MOTOR
 10
44.468614
 20
24.155281
 30
0.0
 42
0.152935
 50
18.925543
  0
VERTEX
  8
MOTOR
 10
44.5581
 20
24.033532
 30
0.0
 42
0.106901
 50
18.925543
  0
VERTEX
  8
MOTOR
 10
44.75313
 20
23.94633
 30
0.0
 42
0.07403
 70
     2
 50
348.113416
  0
VERTEX
  8
MOTOR
 10
44.980425
 20
23.932752
 30
0.0
 42
0.060622
 50
348.113416
  0
VERTEX
  8
MOTOR
 10
45.251937
 20
23.990401
 30
0.0
 42
0.060622
 50
18.925543
  0
VERTEX
  8
MOTOR
 10
45.5017
 20
24.111484
 30
0.0
 42
0.07403
 50
18.925543
  0
VERTEX
  8
MOTOR
 10
45.672842
 20
24.261676
 30
0.0
 42
0.106901
 70
     2
 50
49.737671
  0
VERTEX
  8
MOTOR
 10
45.773331
 20
24.450204
 30
0.0
 42
0.152935
 50
49.737671
  0
VERTEX
  8
MOTOR
 10
45.769283
 20
24.601247
 30
0.0
 42
0.152935
 50
18.925543
  0
SEQEND
  8
MOTOR
  0
POLYLINE
  8
MOTOR
 66
     1
 10
0.0
 20
0.0
 30
0.0
  0
VERTEX
  8
MOTOR
 10
44.563411
 20
24.029684
 30
0.0
 42
0.037821
 50
18.925543
  0
VERTEX
  8
MOTOR
 10
44.748001
 20
23.819135
 30
0.0
 42
0.104285
 70
     2
 50
315.573165
  0
VERTEX
  8
MOTOR
 10
45.122826
 20
23.580164
 30
0.0
 42
0.174249
 50
315.573165
  0
VERTEX
  8
MOTOR
 10
45.393966
 20
23.576173
 30
0.0
 42
0.174249
 50
18.925543
  0
VERTEX
  8
MOTOR
 10
45.60561
 20
23.745699
 30
0.0
 42
0.104285
 50
18.925543
  0
VERTEX
  8
MOTOR
 10
45.75494
 20
24.164389
 30
0.0
 42
0.037821
 70
     2
 50
82.277922
  0
VERTEX
  8
MOTOR
 10
45.771498
 20
24.443906
 30
0.0
 42
0.011647
 50
82.277922
  0
SEQEND
  8
MOTOR
  0
LINE
  8
MOTOR
 10
45.769283
 20
24.601247
 30
0.0
 11
45.726969
 21
24.724621
 31
0.0
  0
LINE
  8
MOTOR
 10
45.044198
 20
24.411285
 30
0.0
 11
45.157711
 21
24.450206
 31
0.0
  0
LINE
  8
MOTOR
 10
44.779237
 20
25.184047
 30
0.0
 11
44.89275
 21
25.222967
 31
0.0
  0
ARC
  8
MOTOR
 10
44.666199
 20
24.358377
 30
0.0
 40
0.252775
 50
164.144968
 51
198.925543
  0
ARC
  8
MOTOR
 10
44.909138
 20
24.28938
 30
0.0
 40
0.505322
 50
139.737671
 51
164.144968
  0
ARC
  8
MOTOR
 10
45.11352
 20
24.116282
 30
0.0
 40
0.773155
 50
122.80204
 51
139.737671
  0
ARC
  8
MOTOR
 10
45.317057
 20
23.800479
 30
0.0
 40
1.148866
 50
111.9192
 51
122.80204
  0
ARC
  8
MOTOR
 10
45.317057
 20
23.800479
 30
0.0
 40
1.148866
 50
95.049047
 51
105.931886
  0
ARC
  8
MOTOR
 10
45.283991
 20
24.174732
 30
0.0
 40
0.773155
 50
78.113416
 51
95.049047
  0
ARC
  8
MOTOR
 10
45.339158
 20
24.436823
 30
0.0
 40
0.505322
 50
53.706119
 51
78.113416
  0
ARC
  8
MOTOR
 10
45.488647
 20
24.640373
 30
0.0
 40
0.252775
 50
18.925543
 51
53.706119
  0
ARC
  8
MOTOR
 10
45.488647
 20
24.640373
 30
0.0
 40
0.252775
 50
344.144968
 51
18.925543
  0
ARC
  8
MOTOR
 10
45.245708
 20
24.70937
 30
0.0
 40
0.505322
 50
319.737671
 51
344.144968
  0
ARC
  8
MOTOR
 10
45.041326
 20
24.882468
 30
0.0
 40
0.773155
 50
302.80204
 51
319.737671
  0
ARC
  8
MOTOR
 10
44.837789
 20
25.198271
 30
0.0
 40
1.148866
 50
288.925543
 51
302.80204
  0
ARC
  8
MOTOR
 10
44.837789
 20
25.198271
 30
0.0
 40
1.148866
 50
275.049047
 51
288.925543
  0
ARC
  8
MOTOR
 10
44.870855
 20
24.824018
 30
0.0
 40
0.773155
 50
258.113416
 51
275.049047
  0
ARC
  8
MOTOR
 10
44.815688
 20
24.561927
 30
0.0
 40
0.505322
 50
233.706119
 51
258.113416
  0
ARC
  8
MOTOR
 10
44.666199
 20
24.358377
 30
0.0
 40
0.252775
 50
198.925543
 51
233.706119
  0
ARC
  8
MOTOR
 10
44.762456
 20
25.41798
 30
0.0
 40
0.400866
 50
69.387539
 51
87.683439
  0
ARC
  8
MOTOR
 10
44.524346
 20
24.784914
 30
0.0
 40
1.07723
 50
45.573165
 51
69.387539
  0
ARC
  8
MOTOR
 10
43.980939
 20
24.230526
 30
0.0
 40
1.853528
 50
30.66748
 51
45.573165
  0
ARC
  8
MOTOR
 10
43.011559
 20
23.655694
 30
0.0
 40
2.980528
 50
18.925543
 51
30.66748
  0
LINE
  8
MOTOR
 10
44.468614
 20
24.155281
 30
0.0
 11
44.426311
 21
24.278658
 31
0.0
  0
LINE
  8
MOTOR
 10
45.132043
 20
24.155081
 30
0.0
 11
44.779237
 21
25.184047
 31
0.0
  0
LINE
  8
MOTOR
 10
45.245556
 20
24.194002
 30
0.0
 11
44.89275
 21
25.222967
 31
0.0
  0
LINE
  8
MOTOR
 10
56.611284
 20
23.815919
 30
0.0
 11
57.251551
 21
24.894193
 31
0.0
  0
LINE
  8
MOTOR
 10
57.035076
 20
26.266632
 30
0.0
 11
57.304639
 21
25.290314
 31
0.0
  0
ARC
  8
MOTOR
 10
56.813033
 20
25.154581
 30
0.0
 40
0.51
 50
329.298656
 51
15.434881
  0
ARC
  8
MOTOR
 10
56.813033
 20
25.154581
 30
0.0
 40
0.25
 50
329.298656
 51
15.434881
  0
LINE
  8
MOTOR
 10
56.6261
 20
26.77097
 30
0.0
 11
57.054016
 21
25.221116
 31
0.0
  0
LINE
  8
MOTOR
  6
CONTINUOUS
 10
54.255654
 20
30.756516
 30
0.0
 11
54.119284
 21
30.552317
 31
0.0
  0
LINE
  8
MOTOR
 10
53.768862
 20
31.951604
 30
0.0
 11
53.366182
 21
32.006308
 31
0.0
  0
LINE
  8
MOTOR
 10
53.859529
 20
33.200769
 30
0.0
 11
53.593901
 21
33.236854
 31
0.0
  0
LINE
  8
MOTOR
 10
56.967059
 20
24.9544
 30
0.0
 11
56.975307
 21
24.938212
 31
0.0
  0
LINE
  8
MOTOR
 10
57.054139
 20
25.088492
 30
0.0
 11
56.967059
 21
24.9544
 31
0.0
  0
LINE
  8
MOTOR
 10
57.452674
 20
25.201834
 30
0.0
 11
57.320145
 21
25.208779
 31
0.0
  0
LINE
  8
MOTOR
 10
57.59553
 20
24.921464
 30
0.0
 11
57.452674
 21
25.201834
 31
0.0
  0
LINE
  8
MOTOR
 10
57.42415
 20
24.657562
 30
0.0
 11
57.59553
 21
24.921464
 31
0.0
  0
LINE
  8
MOTOR
 10
57.120492
 20
24.673476
 30
0.0
 11
57.42415
 21
24.657562
 31
0.0
  0
ARC
  8
MOTOR
 10
57.281294
 20
24.937932
 30
0.0
 40
0.426808
 50
238.863282
 51
89.624432
  0
LINE
  8
MOTOR
  6
CONTINUOUS
 10
56.421918
 20
27.021118
 30
0.0
 11
56.216635
 21
26.713729
 31
0.0
  0
LINE
  8
MOTOR
 10
54.509774
 20
30.106143
 30
0.0
 11
54.138496
 21
30.354094
 31
0.0
  0
LINE
  8
MOTOR
  6
CONTINUOUS
 10
54.147426
 20
30.819531
 30
0.0
 11
54.043335
 21
30.663666
 31
0.0
  0
LINE
  8
MOTOR
 10
53.975989
 20
31.213721
 30
0.0
 11
54.195407
 21
34.236772
 31
0.0
  0
LINE
  8
MOTOR
 10
54.501683
 20
30.914128
 30
0.0
 11
53.971047
 21
31.223087
 31
0.0
  0
ARC
  8
MOTOR
 10
54.245067
 20
30.473392
 30
0.0
 40
0.51
 50
2.26287
 51
59.790167
  0
LINE
  8
MOTOR
 10
54.780128
 20
29.849242
 30
0.0
 11
54.754669
 21
30.493529
 31
0.0
  0
ARC
  8
MOTOR
 10
53.966015
 20
31.214445
 30
0.0
 40
0.25
 50
175.848651
 51
239.790167
  0
ARC
  8
MOTOR
 10
54.245067
 20
30.473392
 30
0.0
 40
0.25
 50
2.26287
 51
59.790167
  0
LINE
  8
MOTOR
 10
53.716671
 20
31.232543
 30
0.0
 11
53.924394
 21
34.094459
 31
0.0
  0
LINE
  8
MOTOR
 10
54.370859
 20
30.689439
 30
0.0
 11
53.840223
 21
30.998398
 31
0.0
  0
LINE
  8
MOTOR
 10
54.515825
 20
29.953002
 30
0.0
 11
54.494872
 21
30.483263
 31
0.0
  0
LINE
  8
MOTOR
 10
56.273238
 20
23.755855
 30
0.0
 11
57.027993
 21
25.02694
 31
0.0
  0
LINE
  8
MOTOR
 10
56.57342
 20
23.152561
 30
0.0
 11
56.496206
 21
21.679224
 31
0.0
  0
LINE
  8
MOTOR
 10
56.011141
 20
23.525784
 30
0.0
 11
56.238136
 21
23.080281
 31
0.0
  0
LINE
  8
MOTOR
 10
55.892979
 20
23.465578
 30
0.0
 11
56.011141
 21
23.525784
 31
0.0
  0
ARC
  8
MOTOR
 10
56.33848
 20
23.41199
 30
0.0
 40
0.35
 50
253.708192
 51
340.291808
  0
LINE
  8
MOTOR
 10
56.008982
 20
23.53002
 30
0.0
 11
56.240295
 21
23.076044
 31
0.0
  0
LINE
  8
MOTOR
 62
     8
 10
56.436665
 20
23.747936
 30
0.0
 11
56.667978
 21
23.293959
 31
0.0
  0
ARC
  8
MOTOR
 10
56.33848
 20
23.41199
 30
0.0
 40
0.35
 50
73.708192
 51
160.291808
  0
LINE
  8
MOTOR
 10
55.742548
 20
22.827766
 30
0.0
 11
56.238136
 21
23.080281
 31
0.0
  0
CIRCLE
  8
FRAME
 10
43.371895
 20
36.934263
 30
0.0
 40
0.426808
  0
LINE
  8
MOTOR
 10
43.131715
 20
23.472956
 30
0.0
 11
43.515334
 21
23.050935
 31
0.0
  0
LINE
  8
MOTOR
 10
43.636262
 20
26.016615
 30
0.0
 11
44.512488
 21
26.109008
 31
0.0
  0
CIRCLE
  8
MOTOR
 10
56.046822
 20
21.702776
 30
0.0
 40
0.2
  0
CIRCLE
  8
MOTOR
 10
56.046822
 20
21.702776
 30
0.0
 40
0.45
  0
LINE
  8
MOTOR
 10
55.379185
 20
21.287147
 30
0.0
 11
56.023271
 21
21.253392
 31
0.0
  0
ARC
  8
MOTOR
 10
57.35394
 20
24.934257
 30
0.0
 40
0.5
 50
267.0
 51
337.331071
  0
LINE
  8
MOTOR
 10
56.989384
 20
24.452677
 30
0.0
 11
57.327772
 21
24.434942
 31
0.0
  0
ARC
  8
MOTOR
 10
57.281294
 20
24.937932
 30
0.0
 40
0.426808
 50
125.111924
 51
201.21784
  0
LINE
  8
FRAME
 10
43.732865
 20
37.538501
 30
0.0
 11
44.432182
 21
35.729774
 31
0.0
  0
ARC
  8
MOTOR
 10
55.891219
 20
34.680261
 30
0.0
 40
0.31598
 50
8.441881
 51
226.967285
  0
LINE
  8
MOTOR
 10
55.570731
 20
34.394229
 30
0.0
 11
55.210143
 21
34.769623
 31
0.0
  0
LINE
  8
EXHAUST
 10
61.801873
 20
28.282981
 30
0.0
 11
58.280401
 21
19.514674
 31
0.0
  0
ARC
  8
EXHAUST
 10
58.496498
 20
30.114966
 30
0.0
 40
2.25
 50
338.11893
 51
5.137936
  0
LINE
  8
EXHAUST
 10
60.584407
 20
29.276433
 30
0.0
 11
59.133008
 21
25.662516
 31
0.0
  0
ARC
  8
MOTOR
 10
57.496463
 20
27.797238
 30
0.0
 40
0.336548
 50
72.461126
 51
97.534658
  0
LINE
  8
MOTOR
 10
53.289573
 20
30.918736
 30
0.0
 11
54.13605
 21
30.802497
 31
0.0
  0
LINE
  8
MOTOR
 62
     8
 10
53.546603
 20
30.43594
 30
0.0
 11
53.611849
 21
30.307887
 31
0.0
  0
LINE
  8
MOTOR
 62
     8
 10
53.689661
 20
30.656231
 30
0.0
 11
53.546603
 21
30.43594
 31
0.0
  0
LINE
  8
MOTOR
 62
     8
 10
53.951968
 20
30.642484
 30
0.0
 11
53.689661
 21
30.656231
 31
0.0
  0
LINE
  8
MOTOR
 62
     8
 10
54.071216
 20
30.408446
 30
0.0
 11
53.951968
 21
30.642484
 31
0.0
  0
LINE
  8
MOTOR
 62
     8
 10
53.928158
 20
30.188155
 30
0.0
 11
54.071216
 21
30.408446
 31
0.0
  0
LINE
  8
MOTOR
 62
     8
 10
53.915089
 20
30.18884
 30
0.0
 11
53.928158
 21
30.188155
 31
0.0
  0
ARC
  8
MOTOR
 10
53.80891
 20
30.422193
 30
0.0
 40
0.336548
 50
306.55202
 51
185.663662
  0
LINE
  8
MOTOR
 10
49.488293
 20
29.271555
 30
0.0
 11
49.327416
 21
29.063751
 31
0.0
  0
LINE
  8
MOTOR
 10
53.627554
 20
33.484579
 30
0.0
 11
53.5681
 21
33.492655
 31
0.0
  0
LINE
  8
MOTOR
 10
54.555035
 20
33.358582
 30
0.0
 11
54.495581
 21
33.366658
 31
0.0
  0
LINE
  8
MOTOR
 10
53.5681
 20
33.492655
 30
0.0
 11
53.366182
 21
32.006308
 31
0.0
  0
LINE
  8
MOTOR
 10
54.555035
 20
33.358582
 30
0.0
 11
54.353117
 21
31.872234
 31
0.0
  0
LINE
  8
MOTOR
 10
53.500794
 20
32.997206
 30
0.0
 11
52.767695
 21
33.096797
 31
0.0
  0
LINE
  8
MOTOR
 10
53.399835
 20
32.254032
 30
0.0
 11
53.029206
 21
32.304382
 31
0.0
  0
LINE
  8
MOTOR
 10
53.627554
 20
33.484579
 30
0.0
 11
53.425636
 21
31.998231
 31
0.0
  0
LINE
  8
MOTOR
 10
54.495581
 20
33.366658
 30
0.0
 11
54.293663
 21
31.880311
 31
0.0
  0
LINE
  8
MOTOR
 10
54.353117
 20
31.872234
 30
0.0
 11
54.027001
 21
31.916536
 31
0.0
  0
LINE
  8
MOTOR
 10
54.461928
 20
33.118934
 30
0.0
 11
54.117667
 21
33.165701
 31
0.0
  0
LINE
  8
MOTOR
 10
55.220828
 20
32.763542
 30
0.0
 11
54.487729
 21
32.863132
 31
0.0
  0
ARC
  8
TANK
 10
45.582699
 20
37.480085
 30
0.0
 40
2.0
 50
70.269223
 51
112.23622
  0
LINE
  8
TANK
 10
44.825847
 20
39.331348
 30
0.0
 11
44.253934
 21
39.097533
 31
0.0
  0
LINE
  8
MOTOR
 10
50.585686
 20
29.633714
 30
0.0
 11
49.488293
 21
29.271555
 31
0.0
  0
LINE
  8
MOTOR
 10
50.260382
 20
29.717661
 30
0.0
 11
50.317314
 21
29.545147
 31
0.0
  0
LINE
  8
MOTOR
  6
CONTINUOUS
 10
52.770113
 20
33.48833
 30
0.0
 11
52.821463
 21
33.332733
 31
0.0
  0
LINE
  8
TANK
 10
53.005259
 20
36.94267
 30
0.0
 11
46.2579
 21
39.362664
 31
0.0
  0
LINE
  8
MOTOR
 10
60.362607
 20
34.476631
 30
0.0
 11
59.879805
 21
34.799061
 31
0.0
  0
LINE
  8
MOTOR
 10
58.560992
 20
35.964456
 30
0.0
 11
59.141841
 21
36.834212
 31
0.0
  0
ARC
  8
MOTOR
 10
46.731178
 20
35.864631
 30
0.0
 40
0.24
 50
288.263802
 51
18.263802
  0
ARC
  8
MOTOR
 10
51.69771
 20
37.503674
 30
0.0
 40
0.24
 50
198.263802
 51
288.263802
  0
ARC
  8
MOTOR
 10
46.998611
 20
36.617806
 30
0.0
 40
0.25
 50
147.512271
 51
198.263802
  0
ARC
  8
MOTOR
 10
47.956721
 20
38.122448
 30
0.0
 40
0.25
 50
108.263802
 51
147.512271
  0
ARC
  8
MOTOR
 10
48.302726
 20
38.368266
 30
0.0
 40
0.125
 50
18.263802
 51
108.263802
  0
LINE
  8
MOTOR
 10
48.421429
 20
38.407441
 30
0.0
 11
48.602256
 21
37.85951
 31
0.0
  0
LINE
  8
MOTOR
 10
48.863155
 20
38.428269
 30
0.0
 11
49.006796
 21
37.993016
 31
0.0
  0
LINE
  8
MOTOR
 10
48.299448
 20
38.630447
 30
0.0
 11
48.010713
 21
38.535159
 31
0.0
  0
LINE
  8
MOTOR
 10
50.101773
 20
37.984028
 30
0.0
 11
50.55817
 21
36.601081
 31
0.0
  0
POLYLINE
  8
MOTOR
 66
     1
 10
0.0
 20
0.0
 30
0.0
  0
VERTEX
  8
MOTOR
 10
50.477766
 20
36.848339
 30
0.0
 42
0.047976
 50
357.0
  0
VERTEX
  8
MOTOR
 10
50.239484
 20
37.279709
 30
0.0
 42
0.082233
 50
357.0
  0
VERTEX
  8
MOTOR
 10
49.809292
 20
37.728134
 30
0.0
 42
0.106854
 70
     2
 50
143.213272
  0
VERTEX
  8
MOTOR
 10
49.269971
 20
37.974923
 30
0.0
 42
0.134556
 50
143.213272
  0
VERTEX
  8
MOTOR
 10
48.796484
 20
37.950632
 30
0.0
 42
0.134556
 50
357.0
  0
SEQEND
  8
MOTOR
  0
POLYLINE
  8
MOTOR
 66
     1
 10
0.0
 20
0.0
 30
0.0
  0
VERTEX
  8
MOTOR
 10
48.796484
 20
37.950632
 30
0.0
 42
0.134556
 50
357.0
  0
VERTEX
  8
MOTOR
 10
48.401545
 20
37.688327
 30
0.0
 42
0.106854
 50
357.0
  0
VERTEX
  8
MOTOR
 10
48.115054
 20
37.169006
 30
0.0
 42
0.082233
 70
     2
 50
253.314332
  0
VERTEX
  8
MOTOR
 10
48.036272
 20
36.55261
 30
0.0
 42
0.047976
 50
253.314332
  0
VERTEX
  8
MOTOR
 10
48.101551
 20
36.064146
 30
0.0
 42
0.070564
 50
357.0
  0
SEQEND
  8
MOTOR
  0
LINE
  8
MOTOR
 10
46.787735
 20
36.752085
 30
0.0
 11
47.745844
 21
38.256727
 31
0.0
  0
LINE
  8
MOTOR
 10
48.184111
 20
35.8176
 30
0.0
 11
47.504327
 21
37.877441
 31
0.0
  0
LINE
  8
MOTOR
 10
48.010713
 20
38.535159
 30
0.0
 11
48.049887
 21
38.416456
 31
0.0
  0
LINE
  8
MOTOR
 10
46.959088
 20
35.939845
 30
0.0
 11
46.761205
 21
36.539457
 31
0.0
  0
LINE
  8
MOTOR
 10
51.4698
 20
37.42846
 30
0.0
 11
51.445501
 21
37.502089
 31
0.0
  0
LINE
  8
MOTOR
 10
48.490584
 20
38.561894
 30
0.0
 11
47.878373
 21
38.359853
 31
0.0
  0
LINE
  8
MOTOR
 10
51.782421
 20
37.278898
 30
0.0
 11
46.796896
 21
35.633587
 31
0.0
  0
LINE
  8
MOTOR
 10
51.863903
 20
37.031996
 30
0.0
 11
46.878378
 21
35.386685
 31
0.0
  0
LINE
  8
MOTOR
 10
49.540958
 20
29.90331
 30
0.0
 11
49.723799
 21
29.349276
 31
0.0
  0
LINE
  8
MOTOR
 10
52.328847
 20
33.03853
 30
0.0
 11
53.163943
 21
30.508073
 31
0.0
  0
LINE
  8
MOTOR
 10
49.57048
 20
31.808159
 30
0.0
 11
49.701547
 21
31.411009
 31
0.0
  0
LINE
  8
MOTOR
 10
51.735333
 20
32.84266
 30
0.0
 11
52.44111
 21
30.704054
 31
0.0
  0
LINE
  8
MOTOR
 10
54.757399
 20
32.069609
 30
0.0
 11
54.38677
 21
32.119959
 31
0.0
  0
ARC
  8
MOTOR
 10
52.047143
 20
36.444844
 30
0.0
 40
0.24
 50
108.263802
 51
198.263802
  0
LINE
  8
MOTOR
 10
51.782421
 20
37.278898
 30
0.0
 11
51.981425
 21
36.675887
 31
0.0
  0
LINE
  8
MOTOR
  6
CONTINUOUS
 10
49.255491
 20
29.976976
 30
0.0
 11
49.488293
 21
29.271555
 31
0.0
  0
LINE
  8
MOTOR
  6
CONTINUOUS
 10
53.205519
 20
31.17343
 30
0.0
 11
53.462797
 21
30.393843
 31
0.0
  0
LINE
  8
MOTOR
 10
51.903077
 20
36.913293
 30
0.0
 11
46.917553
 21
35.267982
 31
0.0
  0
LINE
  8
MOTOR
 10
52.741934
 20
33.174856
 30
0.0
 11
51.211014
 21
32.669625
 31
0.0
  0
LINE
  8
MOTOR
 10
52.821463
 20
33.332733
 30
0.0
 11
51.885712
 21
33.023919
 31
0.0
  0
LINE
  8
MOTOR
  6
CONTINUOUS
 10
52.741934
 20
33.174856
 30
0.0
 11
53.324495
 21
31.409614
 31
0.0
  0
LINE
  8
MOTOR
  6
CONTINUOUS
 10
51.819233
 20
36.36963
 30
0.0
 11
51.833229
 21
36.327221
 31
0.0
  0
LINE
  8
MOTOR
  6
CONTINUOUS
 10
47.308521
 20
34.881015
 30
0.0
 11
47.570044
 21
34.088564
 31
0.0
  0
LINE
  8
MOTOR
 10
53.205519
 20
31.17343
 30
0.0
 11
53.324495
 21
31.409614
 31
0.0
  0
LINE
  8
MOTOR
 10
52.741934
 20
33.174856
 30
0.0
 11
52.821463
 21
33.332733
 31
0.0
  0
LINE
  8
MOTOR
 10
51.981425
 20
36.675887
 30
0.0
 11
46.995901
 21
35.030576
 31
0.0
  0
LINE
  8
MOTOR
  6
CONTINUOUS
 10
46.796896
 20
35.633587
 30
0.0
 11
46.995901
 21
35.030576
 31
0.0
  0
ARC
  8
MOTOR
 10
47.080611
 20
34.805801
 30
0.0
 40
0.24
 50
18.263802
 51
108.263802
  0
ARC
  8
MOTOR
 10
59.387159
 20
34.075881
 30
0.0
 40
0.24
 50
56.263802
 51
76.385914
  0
ARC
  8
MOTOR
 10
57.871993
 20
32.249863
 30
0.0
 40
0.24
 50
146.263802
 51
236.263802
  0
ARC
  8
MOTOR
 10
58.824179
 20
31.613964
 30
0.0
 40
0.24
 50
236.263802
 51
326.263802
  0
ARC
  8
MOTOR
 10
56.808439
 20
35.798028
 30
0.0
 40
0.24
 50
326.263802
 51
343.465669
  0
LINE
  8
MOTOR
  6
CONTINUOUS
 10
57.245263
 20
35.794903
 30
0.0
 11
56.70904
 21
34.991971
 31
0.0
  0
LINE
  8
MOTOR
  6
CONTINUOUS
 10
57.683396
 20
32.399605
 30
0.0
 11
57.672409
 21
32.383152
 31
0.0
  0
LINE
  8
MOTOR
 10
59.829701
 20
34.068937
 30
0.0
 11
59.453485
 21
34.320185
 31
0.0
  0
LINE
  8
MOTOR
  6
CONTINUOUS
 10
59.296497
 20
31.889062
 30
0.0
 11
59.023764
 21
31.480675
 31
0.0
  0
LINE
  8
MOTOR
 10
59.968305
 20
31.66758
 30
0.0
 11
59.913679
 21
31.704061
 31
0.0
  0
LINE
  8
MOTOR
 10
59.879446
 20
31.534523
 30
0.0
 11
59.808619
 21
31.581824
 31
0.0
  0
LINE
  8
MOTOR
 10
59.712835
 20
31.285042
 30
0.0
 11
59.611631
 21
31.35263
 31
0.0
  0
LINE
  8
MOTOR
 10
59.623976
 20
31.151986
 30
0.0
 11
59.50657
 21
31.230393
 31
0.0
  0
LINE
  8
MOTOR
 10
59.457365
 20
30.902505
 30
0.0
 11
59.309582
 21
31.001198
 31
0.0
  0
LINE
  8
MOTOR
 10
57.70973
 20
31.200223
 30
0.0
 11
57.830711
 21
31.26974
 31
0.0
  0
LINE
  8
MOTOR
 10
55.80227
 20
31.04672
 30
0.0
 11
56.010074
 21
31.132809
 31
0.0
  0
LINE
  8
MOTOR
 10
57.154457
 20
30.143688
 30
0.0
 11
57.154361
 21
30.36862
 31
0.0
  0
LINE
  8
MOTOR
 10
56.565444
 20
31.964412
 30
0.0
 11
56.583306
 21
32.102795
 31
0.0
  0
LINE
  8
MOTOR
 10
55.26648
 20
32.8319
 30
0.0
 11
55.23195
 21
33.005271
 31
0.0
  0
LINE
  8
MOTOR
 10
54.762765
 20
31.740932
 30
0.0
 11
54.71111
 21
32.000296
 31
0.0
  0
LINE
  8
MOTOR
 10
59.008695
 20
30.332735
 30
0.0
 11
59.087312
 21
30.348393
 31
0.0
  0
LINE
  8
MOTOR
 10
58.193961
 20
29.449476
 30
0.0
 11
58.453325
 21
29.501132
 31
0.0
  0
LINE
  8
MOTOR
  6
CONTINUOUS
 10
57.008023
 20
35.664739
 30
0.0
 11
56.477546
 21
34.87041
 31
0.0
  0
LINE
  8
MOTOR
  6
CONTINUOUS
 10
55.26648
 20
32.8319
 30
0.0
 11
54.71111
 21
32.000296
 31
0.0
  0
LINE
  8
MOTOR
  6
CONTINUOUS
 10
59.008695
 20
30.332735
 30
0.0
 11
58.453325
 21
29.501132
 31
0.0
  0
LINE
  8
MOTOR
 10
53.40644
 20
30.564613
 30
0.0
 11
53.199022
 21
30.496161
 31
0.0
  0
LINE
  8
MOTOR
  6
CONTINUOUS
 10
54.866716
 20
31.671511
 30
0.0
 11
54.400324
 21
30.973143
 31
0.0
  0
LINE
  8
MOTOR
  6
CONTINUOUS
 10
58.090011
 20
29.518897
 30
0.0
 11
57.293172
 21
28.325722
 31
0.0
  0
LINE
  8
MOTOR
  6
CONTINUOUS
 10
56.826558
 20
32.467038
 30
0.0
 11
56.583306
 21
32.102795
 31
0.0
  0
LINE
  8
MOTOR
  6
CONTINUOUS
 10
58.073963
 20
31.633983
 30
0.0
 11
57.830711
 21
31.26974
 31
0.0
  0
LINE
  8
MOTOR
  6
CONTINUOUS
 10
56.565444
 20
31.964412
 30
0.0
 11
56.010074
 21
31.132809
 31
0.0
  0
LINE
  8
MOTOR
  6
CONTINUOUS
 10
57.70973
 20
31.200223
 30
0.0
 11
57.154361
 21
30.36862
 31
0.0
  0
LINE
  8
MOTOR
  6
CONTINUOUS
 10
55.80227
 20
31.04672
 30
0.0
 11
54.956355
 21
29.780058
 31
0.0
  0
LINE
  8
MOTOR
  6
CONTINUOUS
 10
57.154457
 20
30.143688
 30
0.0
 11
56.648034
 21
29.385378
 31
0.0
  0
LINE
  8
MOTOR
 10
59.368506
 20
30.769448
 30
0.0
 11
59.204522
 21
30.878961
 31
0.0
  0
LINE
  8
MOTOR
 10
59.125254
 20
30.405206
 30
0.0
 11
58.912864
 21
30.547046
 31
0.0
  0
LINE
  8
MOTOR
 10
59.008695
 20
30.332735
 30
0.0
 11
58.825588
 21
30.45502
 31
0.0
  0
LINE
  8
MOTOR
 10
58.453325
 20
29.501132
 30
0.0
 11
58.047742
 21
29.771993
 31
0.0
  0
LINE
  8
MOTOR
 10
58.193961
 20
29.449476
 30
0.0
 11
57.885633
 21
29.655387
 31
0.0
  0
LINE
  8
MOTOR
 10
60.104129
 20
34.186289
 30
0.0
 11
59.621328
 21
34.508719
 31
0.0
  0
LINE
  8
EXHAUST
 10
49.10656
 20
31.564548
 30
0.0
 11
52.67703
 21
30.643174
 31
0.0
  0
LINE
  8
EXHAUST
 10
47.128517
 20
30.52585
 30
0.0
 11
52.537908
 21
29.129936
 31
0.0
  0
LINE
  8
MOTOR
  6
CONTINUOUS
 10
58.193961
 20
29.449476
 30
0.0
 11
57.360906
 21
28.202071
 31
0.0
  0
LINE
  8
MOTOR
  6
CONTINUOUS
 10
54.762765
 20
31.740932
 30
0.0
 11
54.292096
 21
31.036158
 31
0.0
  0
ARC
  8
MOTOR
 10
54.493065
 20
20.432254
 30
0.0
 40
0.2
 50
177.0
 51
267.0
  0
ARC
  8
MOTOR
 10
55.345458
 20
20.711095
 30
0.0
 40
0.2
 50
142.986177
 51
215.723051
  0
ARC
  8
MOTOR
 10
54.984185
 20
20.451273
 30
0.0
 40
0.245
 50
168.702245
 51
35.723051
  0
LINE
  8
MOTOR
 10
54.482598
 20
20.232528
 30
0.0
 11
54.983547
 21
20.206274
 31
0.0
  0
LINE
  8
MOTOR
 10
56.706495
 20
24.556029
 30
0.0
 11
56.350044
 21
24.081553
 31
0.0
  0
ARC
  8
MOTOR
 10
56.546592
 20
24.676157
 30
0.0
 40
0.2
 50
267.0
 51
357.0
  0
ARC
  8
MOTOR
 10
56.581444
 20
25.341185
 30
0.0
 40
0.2
 50
357.0
 51
87.0
  0
LINE
  8
MOTOR
 10
56.536124
 20
24.476431
 30
0.0
 11
56.278371
 21
24.489939
 31
0.0
  0
LINE
  8
MOTOR
 10
56.78117
 20
25.330718
 30
0.0
 11
56.746318
 21
24.66569
 31
0.0
  0
LINE
  8
MOTOR
 10
56.434146
 20
25.549179
 30
0.0
 11
56.591911
 21
25.540911
 31
0.0
  0
LINE
  8
MOTOR
 10
45.651869
 20
29.159579
 30
0.0
 11
46.846649
 21
28.328839
 31
0.0
  0
LINE
  8
MOTOR
 10
44.81944
 20
26.425673
 30
0.0
 11
44.837047
 21
28.422472
 31
0.0
  0
LINE
  8
FRAME
 10
45.630273
 20
29.739101
 30
0.0
 11
45.661828
 21
28.892349
 31
0.0
  0
LINE
  8
FRAME
 10
44.117836
 20
28.444456
 30
0.0
 11
45.184535
 21
28.411851
 31
0.0
  0
CIRCLE
  8
FRAME
 10
45.198695
 20
28.87509
 30
0.0
 40
0.463455
  0
ARC
  8
MOTOR
 10
54.387269
 20
21.433504
 30
0.0
 40
1.0
 50
322.986177
 51
344.197684
  0
ARC
  8
MOTOR
 10
55.732324
 20
21.913173
 30
0.0
 40
0.2
 50
103.43667
 51
166.729024
  0
ARC
  8
MOTOR
 10
55.914833
 20
22.686988
 30
0.0
 40
0.2
 50
166.729024
 51
230.021379
  0
LINE
  8
MOTOR
 10
55.537665
 20
21.959084
 30
0.0
 11
55.349476
 21
21.161185
 31
0.0
  0
LINE
  8
MOTOR
 62
     8
 10
55.514545
 20
22.169871
 30
0.0
 11
55.724257
 21
22.158881
 31
0.0
  0
LINE
  8
MOTOR
 62
     8
 10
55.724257
 20
22.158881
 30
0.0
 11
55.838631
 21
22.335001
 31
0.0
  0
LINE
  8
MOTOR
 62
     8
 10
55.838631
 20
22.335001
 30
0.0
 11
55.743293
 21
22.522113
 31
0.0
  0
LINE
  8
MOTOR
 62
     8
 10
55.743293
 20
22.522113
 30
0.0
 11
55.533581
 21
22.533103
 31
0.0
  0
LINE
  8
MOTOR
 62
     8
 10
55.533581
 20
22.533103
 30
0.0
 11
55.419207
 21
22.356982
 31
0.0
  0
LINE
  8
MOTOR
 62
     8
 10
55.419207
 20
22.356982
 30
0.0
 11
55.514545
 21
22.169871
 31
0.0
  0
CIRCLE
  8
MOTOR
 10
55.628919
 20
22.345992
 30
0.0
 40
0.245
  0
LINE
  8
MOTOR
 62
     8
 10
54.869811
 20
20.275153
 30
0.0
 11
55.079523
 21
20.264162
 31
0.0
  0
LINE
  8
MOTOR
 62
     8
 10
55.079523
 20
20.264162
 30
0.0
 11
55.193897
 21
20.440283
 31
0.0
  0
LINE
  8
MOTOR
 62
     8
 10
55.193897
 20
20.440283
 30
0.0
 11
55.098559
 21
20.627394
 31
0.0
  0
LINE
  8
MOTOR
 62
     8
 10
55.098559
 20
20.627394
 30
0.0
 11
54.888847
 21
20.638385
 31
0.0
  0
LINE
  8
MOTOR
 62
     8
 10
54.888847
 20
20.638385
 30
0.0
 11
54.774473
 21
20.462264
 31
0.0
  0
LINE
  8
MOTOR
 62
     8
 10
54.774473
 20
20.462264
 30
0.0
 11
54.869811
 21
20.275153
 31
0.0
  0
CIRCLE
  8
MOTOR
 10
54.984185
 20
20.451273
 30
0.0
 40
0.245
  0
ARC
  8
MOTOR
 10
56.098531
 20
23.787201
 30
0.0
 40
0.2
 50
82.818473
 51
141.455316
  0
ARC
  8
MOTOR
 10
54.387269
 20
21.433504
 30
0.0
 40
1.0
 50
269.184395
 51
290.895413
  0
LINE
  8
MOTOR
 10
43.625918
 20
22.981157
 30
0.0
 11
43.850948
 21
20.889528
 31
0.0
  0
LINE
  8
MOTOR
 10
50.48521
 20
20.632003
 30
0.0
 11
52.303978
 21
20.53919
 31
0.0
  0
LINE
  8
MOTOR
 10
56.011282
 20
23.967167
 30
0.0
 11
55.720173
 21
22.7329
 31
0.0
  0
ARC
  8
MOTOR
 10
55.854417
 20
27.1676
 30
0.0
 40
0.2
 50
226.805519
 51
285.442361
  0
ARC
  8
MOTOR
 10
56.354945
 20
26.510472
 30
0.0
 40
0.2
 50
149.150005
 51
207.786847
  0
ARC
  8
MOTOR
 10
55.972907
 20
26.738665
 30
0.0
 40
0.245
 50
329.150005
 51
105.442361
  0
ARC
  8
MOTOR
 10
50.269073
 20
28.596114
 30
0.0
 40
0.2
 50
259.62175
 51
322.914105
  0
ARC
  8
MOTOR
 10
51.051114
 20
28.452889
 30
0.0
 40
0.2
 50
196.329395
 51
259.62175
  0
ARC
  8
MOTOR
 10
50.624064
 20
28.327774
 30
0.0
 40
0.245
 50
16.329395
 51
142.914105
  0
ARC
  8
MOTOR
 10
47.997313
 20
28.672916
 30
0.0
 40
0.2
 50
277.061997
 51
340.354352
  0
ARC
  8
MOTOR
 10
48.790491
 20
28.76432
 30
0.0
 40
0.2
 50
212.792916
 51
273.473032
  0
ARC
  8
MOTOR
 10
48.416409
 20
28.523306
 30
0.0
 40
0.245
 50
32.792916
 51
160.354352
  0
ARC
  8
MOTOR
 10
45.306154
 20
27.815605
 30
0.0
 40
0.2
 50
326.265914
 51
21.668334
  0
ARC
  8
MOTOR
 10
45.954658
 20
28.357835
 30
0.0
 40
0.2
 50
238.131259
 51
293.533678
  0
ARC
  8
MOTOR
 10
44.181097
 20
25.599808
 30
0.0
 40
0.2
 50
333.344724
 51
36.637079
  0
ARC
  8
MOTOR
 10
44.537772
 20
26.310359
 30
0.0
 40
0.2
 50
270.05237
 51
333.344724
  0
ARC
  8
MOTOR
 10
43.568197
 20
22.789668
 30
0.0
 40
0.2
 50
17.822986
 51
73.225405
  0
ARC
  8
MOTOR
 10
43.543289
 20
23.633479
 30
0.0
 40
0.2
 50
290.156129
 51
348.780732
  0
ARC
  8
MOTOR
 10
44.996207
 20
23.248784
 30
0.0
 40
1.3
 50
197.822986
 51
265.532668
  0
ARC
  8
MOTOR
 10
46.55359
 20
26.982596
 30
0.0
 40
1.3
 50
146.265914
 51
153.344724
  0
LINE
  8
MOTOR
 10
44.716517
 20
26.220635
 30
0.0
 11
45.391751
 21
27.565804
 31
0.0
  0
LINE
  8
MOTOR
 10
50.233044
 20
28.399386
 30
0.0
 11
49.589776
 21
28.517195
 31
0.0
  0
ARC
  8
MOTOR
 10
54.143225
 20
25.345013
 30
0.0
 40
2.3
 50
337.070787
 51
27.786847
  0
LINE
  8
MOTOR
 62
     8
 10
43.582253
 20
23.039611
 30
0.0
 11
43.791965
 21
23.02862
 31
0.0
  0
LINE
  8
MOTOR
 62
     8
 10
43.791965
 20
23.02862
 30
0.0
 11
43.906339
 21
23.204741
 31
0.0
  0
LINE
  8
MOTOR
 62
     8
 10
43.906339
 20
23.204741
 30
0.0
 11
43.811001
 21
23.391853
 31
0.0
  0
LINE
  8
MOTOR
 62
     8
 10
43.811001
 20
23.391853
 30
0.0
 11
43.601289
 21
23.402843
 31
0.0
  0
LINE
  8
MOTOR
 62
     8
 10
43.601289
 20
23.402843
 30
0.0
 11
43.486915
 21
23.226722
 31
0.0
  0
LINE
  8
MOTOR
 62
     8
 10
43.486915
 20
23.226722
 30
0.0
 11
43.582253
 21
23.039611
 31
0.0
  0
CIRCLE
  8
MOTOR
 10
43.696627
 20
23.215732
 30
0.0
 40
0.245
  0
LINE
  8
MOTOR
 62
     8
 10
44.423805
 20
25.689238
 30
0.0
 11
44.633517
 21
25.678248
 31
0.0
  0
LINE
  8
MOTOR
 62
     8
 10
44.633517
 20
25.678248
 30
0.0
 11
44.747891
 21
25.854369
 31
0.0
  0
LINE
  8
MOTOR
 62
     8
 10
44.747891
 20
25.854369
 30
0.0
 11
44.652553
 21
26.04148
 31
0.0
  0
LINE
  8
MOTOR
 62
     8
 10
44.652553
 20
26.04148
 30
0.0
 11
44.442841
 21
26.05247
 31
0.0
  0
LINE
  8
MOTOR
 62
     8
 10
44.442841
 20
26.05247
 30
0.0
 11
44.328467
 21
25.87635
 31
0.0
  0
LINE
  8
MOTOR
 62
     8
 10
44.328467
 20
25.87635
 30
0.0
 11
44.423805
 21
25.689238
 31
0.0
  0
CIRCLE
  8
MOTOR
 10
44.538179
 20
25.865359
 30
0.0
 40
0.245
  0
LINE
  8
MOTOR
 62
     8
 10
50.50969
 20
28.151653
 30
0.0
 11
50.719402
 21
28.140662
 31
0.0
  0
LINE
  8
MOTOR
 62
     8
 10
50.719402
 20
28.140662
 30
0.0
 11
50.833777
 21
28.316783
 31
0.0
  0
LINE
  8
MOTOR
 62
     8
 10
50.833777
 20
28.316783
 30
0.0
 11
50.738439
 21
28.503894
 31
0.0
  0
LINE
  8
MOTOR
 62
     8
 10
50.738439
 20
28.503894
 30
0.0
 11
50.528726
 21
28.514885
 31
0.0
  0
LINE
  8
MOTOR
 62
     8
 10
50.528726
 20
28.514885
 30
0.0
 11
50.414352
 21
28.338764
 31
0.0
  0
LINE
  8
MOTOR
 62
     8
 10
50.414352
 20
28.338764
 30
0.0
 11
50.50969
 21
28.151653
 31
0.0
  0
CIRCLE
  8
MOTOR
 10
50.624064
 20
28.327774
 30
0.0
 40
0.245
  0
LINE
  8
MOTOR
 62
     8
 10
48.302035
 20
28.347185
 30
0.0
 11
48.511747
 21
28.336194
 31
0.0
  0
LINE
  8
MOTOR
 62
     8
 10
48.511747
 20
28.336194
 30
0.0
 11
48.626121
 21
28.512315
 31
0.0
  0
LINE
  8
MOTOR
 62
     8
 10
48.626121
 20
28.512315
 30
0.0
 11
48.530783
 21
28.699427
 31
0.0
  0
LINE
  8
MOTOR
 62
     8
 10
48.530783
 20
28.699427
 30
0.0
 11
48.321071
 21
28.710417
 31
0.0
  0
LINE
  8
MOTOR
 62
     8
 10
48.321071
 20
28.710417
 30
0.0
 11
48.206697
 21
28.534296
 31
0.0
  0
LINE
  8
MOTOR
 62
     8
 10
48.206697
 20
28.534296
 30
0.0
 11
48.302035
 21
28.347185
 31
0.0
  0
CIRCLE
  8
MOTOR
 10
48.416409
 20
28.523306
 30
0.0
 40
0.245
  0
LINE
  8
MOTOR
 62
     8
 10
55.858533
 20
26.562544
 30
0.0
 11
56.068245
 21
26.551554
 31
0.0
  0
LINE
  8
MOTOR
 62
     8
 10
56.068245
 20
26.551554
 30
0.0
 11
56.182619
 21
26.727674
 31
0.0
  0
LINE
  8
MOTOR
 62
     8
 10
56.182619
 20
26.727674
 30
0.0
 11
56.087281
 21
26.914786
 31
0.0
  0
LINE
  8
MOTOR
 62
     8
 10
56.087281
 20
26.914786
 30
0.0
 11
55.877569
 21
26.925776
 31
0.0
  0
LINE
  8
MOTOR
 62
     8
 10
55.877569
 20
26.925776
 30
0.0
 11
55.763195
 21
26.749655
 31
0.0
  0
LINE
  8
MOTOR
 62
     8
 10
55.763195
 20
26.749655
 30
0.0
 11
55.858533
 21
26.562544
 31
0.0
  0
CIRCLE
  8
MOTOR
 10
55.972907
 20
26.738665
 30
0.0
 40
0.245
  0
LINE
  8
MOTOR
 62
     8
 10
56.039788
 20
24.05259
 30
0.0
 11
56.2495
 21
24.041599
 31
0.0
  0
LINE
  8
MOTOR
 62
     8
 10
56.2495
 20
24.041599
 30
0.0
 11
56.363874
 21
24.21772
 31
0.0
  0
LINE
  8
MOTOR
 62
     8
 10
56.363874
 20
24.21772
 30
0.0
 11
56.268536
 21
24.404831
 31
0.0
  0
LINE
  8
MOTOR
 62
     8
 10
56.268536
 20
24.404831
 30
0.0
 11
56.058824
 21
24.415822
 31
0.0
  0
LINE
  8
MOTOR
 62
     8
 10
56.058824
 20
24.415822
 30
0.0
 11
55.94445
 21
24.239701
 31
0.0
  0
LINE
  8
MOTOR
 62
     8
 10
55.94445
 20
24.239701
 30
0.0
 11
56.039788
 21
24.05259
 31
0.0
  0
CIRCLE
  8
MOTOR
 10
56.154162
 20
24.22871
 30
0.0
 40
0.245
  0
LINE
  8
MOTOR
 62
     8
 10
45.605335
 20
27.803793
 30
0.0
 11
45.815047
 21
27.792803
 31
0.0
  0
LINE
  8
MOTOR
 62
     8
 10
45.815047
 20
27.792803
 30
0.0
 11
45.929421
 21
27.968924
 31
0.0
  0
LINE
  8
MOTOR
 62
     8
 10
45.929421
 20
27.968924
 30
0.0
 11
45.834083
 21
28.156035
 31
0.0
  0
LINE
  8
MOTOR
 62
     8
 10
45.834083
 20
28.156035
 30
0.0
 11
45.624371
 21
28.167025
 31
0.0
  0
LINE
  8
MOTOR
 62
     8
 10
45.624371
 20
28.167025
 30
0.0
 11
45.509997
 21
27.990905
 31
0.0
  0
LINE
  8
MOTOR
 62
     8
 10
45.509997
 20
27.990905
 30
0.0
 11
45.605335
 21
27.803793
 31
0.0
  0
CIRCLE
  8
MOTOR
 10
45.719709
 20
27.979914
 30
0.0
 40
0.245
  0
ARC
  8
MOTOR
 10
54.143225
 20
25.345013
 30
0.0
 40
2.3
 50
288.120541
 51
321.455316
  0
LINE
  8
MOTOR
 10
54.858565
 20
23.159084
 30
0.0
 11
50.209136
 21
21.637571
 31
0.0
  0
ARC
  8
MOTOR
 10
49.804814
 20
22.873097
 30
0.0
 40
1.3
 50
265.532668
 51
288.120541
  0
LINE
  8
MOTOR
 10
44.894949
 20
21.952733
 30
0.0
 11
49.703556
 21
21.577046
 31
0.0
  0
ARC
  8
MOTOR
 10
45.203227
 20
24.29247
 30
0.0
 40
1.3
 50
153.344724
 51
168.780732
  0
LINE
  8
MOTOR
 10
43.739467
 20
23.594566
 30
0.0
 11
43.92807
 21
24.545403
 31
0.0
  0
LINE
  8
MOTOR
 10
44.041389
 20
24.875678
 30
0.0
 11
44.359841
 21
25.510084
 31
0.0
  0
ARC
  8
MOTOR
 10
46.55359
 20
26.982596
 30
0.0
 40
1.3
 50
97.061997
 51
113.533678
  0
ARC
  8
MOTOR
 10
49.000699
 20
25.300693
 30
0.0
 40
3.27
 50
79.62175
 51
82.396069
  0
LINE
  8
MOTOR
 10
46.393764
 20
28.272734
 30
0.0
 11
48.021901
 21
28.474433
 31
0.0
  0
LINE
  8
MOTOR
 10
54.55756
 20
27.607385
 30
0.0
 11
54.364261
 21
27.642786
 31
0.0
  0
ARC
  8
MOTOR
 10
45.203227
 20
24.29247
 30
0.0
 40
1.0
 50
157.832231
 51
168.780732
  0
ARC
  8
MOTOR
 10
49.804814
 20
22.873097
 30
0.0
 40
1.0
 50
265.532668
 51
288.120541
  0
ARC
  8
MOTOR
 10
44.996207
 20
23.248784
 30
0.0
 40
1.0
 50
168.780732
 51
265.532668
  0
ARC
  8
MOTOR
 10
46.55359
 20
26.982596
 30
0.0
 40
1.0
 50
97.061997
 51
153.344724
  0
LINE
  8
MOTOR
 10
46.430647
 20
27.97501
 30
0.0
 11
48.654607
 21
28.250521
 31
0.0
  0
LINE
  8
MOTOR
 10
44.846079
 20
25.810027
 30
0.0
 11
45.659868
 21
27.431218
 31
0.0
  0
LINE
  8
MOTOR
 10
44.015317
 20
23.443348
 30
0.0
 11
44.222337
 21
24.487034
 31
0.0
  0
LINE
  8
MOTOR
 10
54.765259
 20
23.444205
 30
0.0
 11
50.115831
 21
21.922692
 31
0.0
  0
LINE
  8
MOTOR
 10
44.918316
 20
22.251822
 30
0.0
 11
49.726923
 21
21.876135
 31
0.0
  0
ARC
  8
MOTOR
 10
49.000699
 20
25.300693
 30
0.0
 40
2.97
 50
96.691908
 51
77.308092
  0
CIRCLE
  8
MOTOR
 10
49.000699
 20
25.300693
 30
0.0
 40
2.3125
  0
CIRCLE
  8
MOTOR
 10
49.000699
 20
25.300693
 30
0.0
 40
0.75
  0
ARC
  8
TANK
 10
52.570263
 20
38.267295
 30
0.0
 40
0.75
 50
250.269223
 51
297.704583
  0
ARC
  8
SEAT
 10
40.832979
 20
39.870669
 30
0.0
 40
3.0
 50
251.728372
 51
316.066335
  0
ARC
  8
TAIL
 62
     1
 10
16.896158
 20
45.941142
 30
0.0
 40
0.125
 50
357.0
 51
87.0
  0
ARC
  8
SEAT
 10
17.51376
 20
45.783603
 30
0.0
 40
0.25
 50
87.0
 51
177.0
  0
LINE
  8
TAIL
 62
     1
 10
17.015524
 20
45.830363
 30
0.0
 11
17.266032
 21
45.817234
 31
0.0
  0
LINE
  8
SEAT
 10
17.526844
 20
46.033261
 30
0.0
 11
27.656982
 21
45.502363
 31
0.0
  0
LINE
  8
TAIL
 10
41.567743
 20
36.962041
 30
0.0
 11
41.484468
 21
36.129986
 31
0.0
  0
ARC
  8
SEAT
 10
44.328308
 20
39.895372
 30
0.0
 40
0.5
 50
316.066335
 51
70.269223
  0
LINE
  8
SEAT
 10
44.497109
 20
40.366016
 30
0.0
 11
39.721284
 21
42.078904
 31
0.0
  0
LINE
  8
SEAT
 62
     1
 10
17.263237
 20
45.78017
 30
0.0
 11
17.264102
 21
45.796687
 31
0.0
  0
LINE
  8
SEAT
 10
39.892412
 20
37.021927
 30
0.0
 11
27.648594
 21
41.064457
 31
0.0
  0
ARC
  8
SEAT
 10
27.883736
 20
41.776643
 30
0.0
 40
0.75
 50
202.899393
 51
251.728372
  0
LINE
  8
SEAT
 10
26.915225
 20
42.142043
 30
0.0
 11
27.192844
 21
41.484807
 31
0.0
  0
ARC
  8
TAIL
 62
     1
 10
27.883736
 20
41.776643
 30
0.0
 40
1.0
 50
202.899393
 51
216.579512
  0
ARC
  8
SEAT
 10
18.012209
 20
45.740918
 30
0.0
 40
0.75
 50
177.0
 51
205.693308
  0
LINE
  8
SEAT
 10
26.078744
 20
42.865307
 30
0.0
 11
17.823206
 21
45.015124
 31
0.0
  0
LINE
  8
SEAT
 10
42.993409
 20
37.789194
 30
0.0
 11
44.68838
 21
39.548459
 31
0.0
  0
ARC
  8
SEAT
 10
39.400929
 20
41.666258
 30
0.0
 40
0.5
 50
69.01629
 51
139.616094
  0
LINE
  8
SEAT
 10
39.721284
 20
42.078904
 30
0.0
 11
39.57998
 21
42.133099
 31
0.0
  0
ARC
  8
SEAT
 10
27.630814
 20
45.003048
 30
0.0
 40
0.5
 50
21.871606
 51
87.0
  0
ARC
  8
TAIL
 62
     1
 10
18.012209
 20
45.740918
 30
0.0
 40
1.0
 50
177.0
 51
211.759725
  0
LINE
  8
TAIL
 62
     1
 10
17.013579
 20
45.793254
 30
0.0
 11
17.020987
 21
45.9346
 31
0.0
  0
ARC
  8
TAIL
 62
     1
 10
25.763738
 20
41.65565
 30
0.0
 40
1.0
 50
22.899393
 51
75.403838
  0
LINE
  8
TAIL
 62
     1
 10
26.684928
 20
42.044764
 30
0.0
 11
26.962547
 21
41.387529
 31
0.0
  0
LINE
  8
TAIL
 62
     1
 10
26.015743
 20
42.623376
 30
0.0
 11
17.760204
 21
44.773192
 31
0.0
  0
LINE
  8
SEAT
 10
28.924286
 20
43.123003
 30
0.0
 11
28.094825
 21
45.189312
 31
0.0
  0
LINE
  8
SEAT
 10
35.611819
 20
41.005656
 30
0.0
 11
30.440559
 21
41.897131
 31
0.0
  0
ARC
  8
TAIL
 10
41.360089
 20
36.142434
 30
0.0
 40
0.125
 50
302.649467
 51
71.58752
  0
ARC
  8
TAIL
 10
11.016027
 20
43.04486
 30
0.0
 40
0.25
 50
135.627085
 51
246.292052
  0
LINE
  8
TAIL
 62
     1
 10
41.399571
 20
36.261035
 30
0.0
 11
27.570214
 21
40.827062
 31
0.0
  0
ARC
  8
TAIL
 10
35.727276
 20
45.882013
 30
0.0
 40
11.376004
 50
272.064807
 51
300.071261
  0
ARC
  8
TAIL
 10
26.585663
 20
36.053942
 30
0.0
 40
2.0
 50
219.191506
 51
272.767944
  0
ARC
  8
TAIL
 62
     1
 10
17.626575
 20
30.898693
 30
0.0
 40
8.213218
 50
36.105966
 51
66.115375
  0
LINE
  8
TAIL
 62
     1
 10
25.035586
 20
34.790113
 30
0.0
 11
24.262268
 21
35.738582
 31
0.0
  0
ARC
  8
TAIL
 10
15.59564
 20
41.127609
 30
0.0
 40
5.0
 50
87.0
 51
109.520645
  0
ARC
  8
TAIL
 10
14.780951
 20
42.960751
 30
0.0
 40
3.0
 50
109.520645
 51
135.627085
  0
LINE
  8
TAIL
 10
13.778512
 20
45.788314
 30
0.0
 11
13.924907
 21
45.840215
 31
0.0
  0
LINE
  8
TAIL
 10
10.837326
 20
43.219691
 30
0.0
 11
12.636541
 21
45.058727
 31
0.0
  0
LINE
  8
TAIL
 10
15.85732
 20
46.120757
 30
0.0
 11
16.9027
 21
46.065971
 31
0.0
  0
LINE
  8
TAIL
 10
36.137152
 20
34.513395
 30
0.0
 11
26.682245
 21
34.056275
 31
0.0
  0
LINE
  8
TAIL
 62
     1
 10
10.915509
 20
42.815958
 30
0.0
 11
15.946596
 21
40.606633
 31
0.0
  0
ARC
  8
TANK
 10
62.268087
 20
43.190332
 30
0.0
 40
0.6
 50
297.704583
 51
24.0
  0
ARC
  8
TANK
 10
58.736155
 20
41.222717
 30
0.0
 40
0.25
 50
251.409981
 51
297.704583
  0
ARC
  8
TANK
 10
58.12235
 20
40.9004
 30
0.0
 40
0.25
 50
297.704583
 51
71.691672
  0
ARC
  8
TANK
 10
27.515365
 20
-51.601468
 30
0.0
 40
97.683994
 50
71.409981
 51
79.718321
  0
ARC
  8
TANK
 10
44.196143
 20
41.610386
 30
0.0
 40
3.0
 50
75.431677
 51
142.176279
  0
LINE
  8
TANK
 10
40.53528
 20
41.786958
 30
0.0
 11
41.82644
 21
43.450089
 31
0.0
  0
ARC
  8
TANK
 10
41.517432
 20
-53.112421
 30
0.0
 40
100.951895
 50
79.103222
 51
85.918443
  0
ARC
  8
TANK
 10
47.940086
 20
39.619878
 30
0.0
 40
8.0
 50
84.528986
 51
142.176279
  0
ARC
  8
TANK
 10
60.410717
 20
44.028356
 30
0.0
 40
2.0
 50
24.0
 51
84.528986
  0
LINE
  8
TANK
 10
52.317062
 20
37.561328
 30
0.0
 11
39.721284
 21
42.078904
 31
0.0
  0
LINE
  8
TANK
 10
62.547035
 20
42.659119
 30
0.0
 11
52.918948
 21
37.603277
 31
0.0
  0
LINE
  8
TANK
 10
39.721284
 20
42.078904
 30
0.0
 11
41.620876
 21
44.525751
 31
0.0
  0
LINE
  8
TANK
 10
63.24683
 20
42.472591
 30
0.0
 11
62.237808
 21
44.84183
 31
0.0
  0
ARC
  8
FRAME
 10
63.456772
 20
42.487378
 30
0.0
 40
0.2
 50
117.704583
 51
181.940317
  0
ARC
  8
FRAME
 10
41.797492
 20
34.733396
 30
0.0
 40
0.5
 50
339.380222
 51
32.448767
  0
LINE
  8
FRAME
 10
42.219428
 20
35.001668
 30
0.0
 11
41.884609
 21
35.528267
 31
0.0
  0
LINE
  8
FRAME
 10
43.617833
 20
36.319933
 30
0.0
 11
42.118603
 21
36.398505
 31
0.0
  0
LINE
  8
FRAME
 10
40.704994
 20
35.652849
 30
0.0
 11
42.025128
 21
35.513427
 31
0.0
  0
LINE
  8
FRAME
 10
41.517694
 20
36.461968
 30
0.0
 11
42.118603
 21
36.398505
 31
0.0
  0
ARC
  8
FRAME
 10
42.071865
 20
35.955966
 30
0.0
 40
0.445
 50
263.971222
 51
83.971222
  0
CIRCLE
  8
FRAME
 10
42.071865
 20
35.955966
 30
0.0
 40
0.3875
  0
CIRCLE
  8
FRAME
 10
42.071865
 20
35.955966
 30
0.0
 40
0.31
  0
LINE
  8
FRAME
 62
     8
 10
42.04754
 20
35.747379
 30
0.0
 11
42.240344
 21
35.830606
 31
0.0
  0
LINE
  8
FRAME
 62
     8
 10
42.240344
 20
35.830606
 30
0.0
 11
42.264669
 21
36.039192
 31
0.0
  0
LINE
  8
FRAME
 62
     8
 10
42.264669
 20
36.039192
 30
0.0
 11
42.096191
 21
36.164552
 31
0.0
  0
LINE
  8
FRAME
 62
     8
 10
42.096191
 20
36.164552
 30
0.0
 11
41.903387
 21
36.081326
 31
0.0
  0
LINE
  8
FRAME
 62
     8
 10
41.903387
 20
36.081326
 30
0.0
 11
41.879061
 21
35.872739
 31
0.0
  0
LINE
  8
FRAME
 62
     8
 10
41.879061
 20
35.872739
 30
0.0
 11
42.04754
 21
35.747379
 31
0.0
  0
LINE
  8
FRAME
 10
41.030659
 20
35.618455
 30
0.0
 11
41.05296
 21
35.829622
 31
0.0
  0
CIRCLE
  8
FRAME
 10
43.569422
 20
35.396201
 30
0.0
 40
0.550881
  0
CIRCLE
  8
FRAME
 62
     8
 10
43.569422
 20
35.396201
 30
0.0
 40
0.285034
  0
ARC
  8
FRAME
 10
42.720139
 20
34.822317
 30
0.0
 40
0.1
 50
34.047946
 51
161.619815
  0
ARC
  8
FRAME
 10
44.274346
 20
34.652086
 30
0.0
 40
0.1
 50
5.878845
 51
133.450715
  0
ARC
  8
FRAME
 10
43.569422
 20
35.396201
 30
0.0
 40
0.925
 50
9.721102
 51
87.0
  0
ARC
  8
FRAME
 10
41.816741
 20
31.627758
 30
0.0
 40
0.25
 50
161.619815
 51
253.569686
  0
ARC
  8
FRAME
 10
44.327807
 20
32.668393
 30
0.0
 40
0.25
 50
297.704583
 51
5.878845
  0
LINE
  8
FRAME
 10
40.739472
 20
30.501736
 30
0.0
 11
40.803997
 21
30.759681
 31
0.0
  0
LINE
  8
FRAME
 10
41.579494
 20
31.706589
 30
0.0
 11
42.62524
 21
34.853849
 31
0.0
  0
LINE
  8
FRAME
 10
44.576492
 20
32.693999
 30
0.0
 11
44.290609
 21
35.470459
 31
0.0
  0
LINE
  8
FRAME
 10
44.966153
 20
32.721225
 30
0.0
 11
44.48114
 21
35.552389
 31
0.0
  0
LINE
  8
FRAME
 10
41.145975
 20
31.582088
 30
0.0
 11
42.265461
 21
34.557313
 31
0.0
  0
ARC
  8
FRAME
 10
43.569422
 20
35.396201
 30
0.0
 40
0.925
 50
214.047946
 51
313.450715
  0
CIRCLE
  8
FRAME
 10
43.569422
 20
35.396201
 30
0.0
 40
0.725
  0
LINE
  8
FRAME
 10
40.433008
 20
30.931173
 30
0.0
 11
40.806448
 21
31.739036
 31
0.0
  0
ARC
  8
FRAME
 10
40.987469
 20
30.519014
 30
0.0
 40
0.1
 50
57.62312
 51
117.704583
  0
ARC
  8
FRAME
 10
42.119256
 20
31.113331
 30
0.0
 40
0.1
 50
117.704583
 51
198.482856
  0
LINE
  8
FRAME
 10
42.072765
 20
31.201867
 30
0.0
 11
62.569401
 21
41.964933
 31
0.0
  0
LINE
  8
FRAME
 10
41.041018
 20
30.603469
 30
0.0
 11
41.246843
 21
30.472965
 31
0.0
  0
ARC
  8
FRAME
 10
41.527439
 20
30.915509
 30
0.0
 40
0.524004
 50
237.62312
 51
18.482856
  0
LINE
  8
FRAME
 62
     8
 10
41.317727
 20
30.926499
 30
0.0
 11
41.413065
 21
30.739388
 31
0.0
  0
LINE
  8
FRAME
 62
     8
 10
41.432101
 20
31.10262
 30
0.0
 11
41.317727
 21
30.926499
 31
0.0
  0
LINE
  8
FRAME
 62
     8
 10
41.641814
 20
31.09163
 30
0.0
 11
41.432101
 21
31.10262
 31
0.0
  0
LINE
  8
FRAME
 62
     8
 10
41.737152
 20
30.904518
 30
0.0
 11
41.641814
 21
31.09163
 31
0.0
  0
LINE
  8
FRAME
 62
     8
 10
41.622777
 20
30.728398
 30
0.0
 11
41.737152
 21
30.904518
 31
0.0
  0
LINE
  8
FRAME
 62
     8
 10
41.413065
 20
30.739388
 30
0.0
 11
41.622777
 21
30.728398
 31
0.0
  0
LINE
  8
FRAME
 10
34.93085
 20
34.455073
 30
0.0
 11
41.714159
 21
31.31944
 31
0.0
  0
LINE
  8
FRAME
 10
33.0106
 20
34.362234
 30
0.0
 11
41.340719
 21
30.511578
 31
0.0
  0
CIRCLE
  8
FRAME
 10
41.527439
 20
30.915509
 30
0.0
 40
0.31
  0
CIRCLE
  8
FRAME
 10
41.527439
 20
30.915509
 30
0.0
 40
0.3875
  0
ARC
  8
FRAME
 10
41.527439
 20
30.915509
 30
0.0
 40
0.445
 50
245.190924
 51
65.190924
  0
ARC
  8
FRAME
 10
41.033466
 20
29.94115
 30
0.0
 40
0.25
 50
184.411776
 51
297.704583
  0
LINE
  8
FRAME
 10
40.739472
 20
30.501736
 30
0.0
 11
41.234182
 21
24.089641
 31
0.0
  0
ARC
  8
FRAME
 10
41.075341
 20
29.398395
 30
0.0
 40
0.25
 50
117.704583
 51
184.411776
  0
ARC
  8
FRAME
 10
45.116571
 20
28.339861
 30
0.0
 40
1.0
 50
117.704583
 51
168.780732
  0
LINE
  8
FRAME
 10
42.914283
 20
22.376781
 30
0.0
 11
44.135682
 21
28.534425
 31
0.0
  0
CIRCLE
  8
FRAME
 10
42.533664
 20
25.186416
 30
0.0
 40
0.71
  0
CIRCLE
  8
FRAME
 10
42.533664
 20
25.186416
 30
0.0
 40
0.625
  0
LINE
  8
FRAME
 10
45.498263
 20
33.000643
 30
0.0
 11
46.869291
 21
30.389727
 31
0.0
  0
ARC
  8
FRAME
 10
67.454291
 20
39.163567
 30
0.0
 40
0.25
 50
338.81643
 51
24.0
  0
ARC
  8
FRAME
 10
67.251151
 20
39.619827
 30
0.0
 40
0.25
 50
24.0
 51
146.263802
  0
ARC
  8
FRAME
 10
61.785331
 20
37.827024
 30
0.0
 40
0.35
 50
117.704583
 51
236.263802
  0
ARC
  8
FRAME
 10
60.036259
 20
36.62619
 30
0.0
 40
0.6
 50
56.263802
 51
117.704583
  0
LINE
  8
FRAME
 10
67.050942
 20
38.917732
 30
0.0
 11
67.575942
 21
39.504983
 31
0.0
  0
LINE
  8
FRAME
 10
60.546382
 20
37.007012
 30
0.0
 11
60.369481
 21
37.125152
 31
0.0
  0
LINE
  8
FRAME
 10
65.252768
 20
39.580462
 30
0.0
 11
66.408697
 21
38.808498
 31
0.0
  0
LINE
  8
FRAME
 10
58.719482
 20
27.294773
 30
0.0
 11
57.563554
 21
28.066737
 31
0.0
  0
LINE
  8
FRAME
 10
67.04325
 20
39.75867
 30
0.0
 11
66.408697
 21
38.808498
 31
0.0
  0
LINE
  8
FRAME
 10
65.728644
 20
40.293033
 30
0.0
 11
65.252768
 21
39.580462
 31
0.0
  0
ARC
  8
FRAME
 10
63.849341
 20
43.597113
 30
0.0
 40
0.6
 50
341.432773
 51
24.0
  0
LINE
  8
FRAME
 10
63.363789
 20
42.664449
 30
0.0
 11
63.726654
 21
42.854995
 31
0.0
  0
ARC
  8
FRAME
 10
64.240904
 20
44.352613
 30
0.0
 40
0.2
 50
114.0
 51
204.0
  0
ARC
  8
FRAME
 10
66.321829
 20
40.886895
 30
0.0
 40
0.25
 50
297.704583
 51
27.704583
  0
LINE
  8
FRAME
 10
64.397469
 20
43.841155
 30
0.0
 11
64.20186
 21
44.280498
 31
0.0
  0
LINE
  8
FRAME
 10
40.959112
 20
29.619734
 30
0.0
 11
62.286651
 21
40.819119
 31
0.0
  0
LINE
  8
FRAME
 10
46.36579
 20
31.348568
 30
0.0
 11
66.155895
 21
41.740625
 31
0.0
  0
LINE
  8
FRAME
 10
40.167119
 20
26.870324
 30
0.0
 11
40.986451
 21
27.300566
 31
0.0
  0
LINE
  8
FRAME
 10
46.412282
 20
31.260032
 30
0.0
 11
66.202386
 21
41.652089
 31
0.0
  0
LINE
  8
FRAME
 10
45.955272
 20
32.130338
 30
0.0
 11
62.359512
 21
40.74443
 31
0.0
  0
LINE
  8
FRAME
 10
40.739472
 20
30.501736
 30
0.0
 11
40.940978
 21
30.60755
 31
0.0
  0
LINE
  8
FRAME
 10
64.078532
 20
44.225589
 30
0.0
 11
65.160205
 21
44.707181
 31
0.0
  0
LINE
  8
FRAME
 10
64.159557
 20
44.535322
 30
0.0
 11
65.830431
 21
45.279244
 31
0.0
  0
LINE
  8
FRAME
 10
64.078532
 20
44.225589
 30
0.0
 11
64.058195
 21
44.271266
 31
0.0
  0
LINE
  8
FEND
 10
66.707746
 20
46.146016
 30
0.0
 11
66.80943
 21
45.91763
 31
0.0
  0
LINE
  8
FEND
 62
     8
 10
66.751898
 20
46.182071
 30
0.0
 11
66.859675
 21
45.94
 31
0.0
  0
LINE
  8
FEND
 10
66.821939
 20
46.196858
 30
0.0
 11
66.923623
 21
45.968472
 31
0.0
  0
LINE
  8
FEND
 10
66.821939
 20
46.196858
 30
0.0
 11
67.339906
 21
46.427472
 31
0.0
  0
POLYLINE
  8
FEND
 66
     1
 10
0.0
 20
0.0
 30
0.0
  0
VERTEX
  8
FEND
 10
66.428212
 20
46.016575
 30
0.0
 50
357.0
  0
VERTEX
  8
FEND
 10
66.490504
 20
46.067444
 30
0.0
 42
0.129653
 50
357.0
  0
VERTEX
  8
FEND
 10
66.540115
 20
46.169521
 30
0.0
 42
0.09277
 70
     2
 50
78.854455
  0
VERTEX
  8
FEND
 10
66.541013
 20
46.263845
 30
0.0
 50
78.854455
  0
VERTEX
  8
FEND
 10
66.52042
 20
46.336272
 30
0.0
 50
357.0
  0
VERTEX
  8
FEND
 10
66.480375
 20
46.400039
 30
0.0
 42
0.09277
 50
357.0
  0
VERTEX
  8
FEND
 10
66.409678
 20
46.462487
 30
0.0
 42
0.129653
 70
     2
 50
149.145545
  0
VERTEX
  8
FEND
 10
66.300624
 20
46.493922
 30
0.0
 50
149.145545
  0
VERTEX
  8
FEND
 10
66.238265
 20
46.484308
 30
0.0
 50
357.0
  0
SEQEND
  8
FEND
  0
ARC
  8
FEND
 10
65.569508
 20
46.254973
 30
0.0
 40
0.0625
 50
204.0
 51
294.0
  0
ARC
  8
FEND
 10
65.823719
 20
45.684007
 30
0.0
 40
0.0625
 50
114.0
 51
204.0
  0
POLYLINE
  8
FEND
 66
     1
 10
0.0
 20
0.0
 30
0.0
 70
     1
  0
VERTEX
  8
FEND
 10
66.273834
 20
46.363315
 30
0.0
 50
357.0
  0
VERTEX
  8
FEND
 10
66.248196
 20
46.342378
 30
0.0
 42
0.106795
 50
357.0
  0
VERTEX
  8
FEND
 10
66.23188
 20
46.304559
 30
0.0
 42
0.082604
 70
     2
 50
258.854455
  0
VERTEX
  8
FEND
 10
66.230599
 20
46.26146
 30
0.0
 50
258.854455
  0
VERTEX
  8
FEND
 10
66.244284
 20
46.213329
 30
0.0
 50
357.0
  0
VERTEX
  8
FEND
 10
66.270896
 20
46.170953
 30
0.0
 42
0.082604
 50
357.0
  0
VERTEX
  8
FEND
 10
66.303781
 20
46.143065
 30
0.0
 42
0.106795
 70
     2
 50
329.145545
  0
VERTEX
  8
FEND
 10
66.342804
 20
46.129885
 30
0.0
 50
329.145545
  0
VERTEX
  8
FEND
 10
66.375518
 20
46.134928
 30
0.0
 50
357.0
  0
VERTEX
  8
FEND
 10
66.401156
 20
46.155864
 30
0.0
 42
0.106795
 50
357.0
  0
VERTEX
  8
FEND
 10
66.417473
 20
46.193684
 30
0.0
 42
0.082604
 70
     2
 50
78.854455
  0
VERTEX
  8
FEND
 10
66.418753
 20
46.236783
 30
0.0
 50
78.854455
  0
VERTEX
  8
FEND
 10
66.405068
 20
46.284914
 30
0.0
 50
357.0
  0
VERTEX
  8
FEND
 10
66.378456
 20
46.32729
 30
0.0
 42
0.082604
 50
357.0
  0
VERTEX
  8
FEND
 10
66.345571
 20
46.355178
 30
0.0
 42
0.106795
 70
     2
 50
149.145545
  0
VERTEX
  8
FEND
 10
66.306548
 20
46.368358
 30
0.0
 50
149.145545
  0
SEQEND
  8
FEND
  0
LINE
  8
FEND
 10
65.798298
 20
45.741104
 30
0.0
 11
66.707746
 21
46.146016
 31
0.0
  0
LINE
  8
FEND
 10
65.594929
 20
46.197876
 30
0.0
 11
66.389721
 21
46.55174
 31
0.0
  0
ARC
  8
FEND
 10
64.878723
 20
45.126438
 30
0.0
 40
0.125
 50
114.0
 51
204.0
  0
ARC
  8
FEND
 10
64.152826
 20
44.734833
 30
0.0
 40
0.125
 50
204.0
 51
294.0
  0
ARC
  8
FEND
 10
63.796932
 20
45.534186
 30
0.0
 40
0.125
 50
114.0
 51
204.0
  0
ARC
  8
FEND
 10
65.372797
 20
46.235806
 30
0.0
 40
0.125
 50
114.0
 51
204.0
  0
ARC
  8
FEND
 10
65.67785
 20
45.550647
 30
0.0
 40
0.125
 50
204.0
 51
294.0
  0
ARC
  8
FEND
 10
67.276555
 20
46.262436
 30
0.0
 40
0.125
 50
294.0
 51
24.0
  0
LINE
  8
FEND
 10
65.563657
 20
45.499805
 30
0.0
 11
65.258604
 21
46.184964
 31
0.0
  0
LINE
  8
FEND
 10
67.390748
 20
46.313278
 30
0.0
 11
67.339906
 21
46.427472
 31
0.0
  0
LINE
  8
FEND
 10
64.203668
 20
44.62064
 30
0.0
 11
65.806027
 21
45.334056
 31
0.0
  0
LINE
  8
FEND
 10
64.827881
 20
45.240632
 30
0.0
 11
65.538236
 21
45.556902
 31
0.0
  0
LINE
  8
FEND
 10
65.728692
 20
45.436454
 30
0.0
 11
67.327397
 21
46.148243
 31
0.0
  0
LINE
  8
FEND
 10
64.038633
 20
44.683991
 30
0.0
 11
63.682738
 21
45.483344
 31
0.0
  0
LINE
  8
FEND
 10
63.746089
 20
45.648379
 30
0.0
 11
65.654009
 21
46.497839
 31
0.0
  0
ARC
  8
BARS
 62
     7
 10
67.203817
 20
43.844556
 30
0.0
 40
0.236523
 50
71.524793
 51
190.647221
  0
LINE
  8
BARS
 10
67.285851
 20
42.985213
 30
0.0
 11
67.001697
 21
43.529399
 31
0.0
  0
LINE
  8
BARS
 10
67.280013
 20
43.219397
 30
0.0
 11
66.969999
 21
43.813107
 31
0.0
  0
LINE
  8
BARS
 10
67.983551
 20
43.833412
 30
0.0
 11
67.27877
 21
44.068889
 31
0.0
  0
ARC
  8
RROTOR
 10
21.728523
 20
20.961851
 30
0.0
 40
3.3245
 50
196.990609
 51
231.373568
  0
ARC
  8
RROTOR
 10
21.728523
 20
20.961851
 30
0.0
 40
3.3245
 50
76.990609
 51
111.373568
  0
ARC
  8
RROTOR
 10
21.728523
 20
20.961851
 30
0.0
 40
4.7245
 50
288.350788
 51
353.643537
  0
ARC
  8
RROTOR
 10
21.728523
 20
20.961851
 30
0.0
 40
4.7245
 50
255.550416
 51
259.499061
  0
ARC
  8
RROTOR
 10
21.728523
 20
20.961851
 30
0.0
 40
4.7245
 50
168.350788
 51
233.643537
  0
ARC
  8
RROTOR
 10
21.728523
 20
20.961851
 30
0.0
 40
4.7245
 50
48.350788
 51
102.939256
  0
CIRCLE
  8
RROTOR
 10
25.744295
 20
19.252338
 30
0.0
 40
0.155
  0
CIRCLE
  8
RROTOR
 10
25.340416
 20
18.829233
 30
0.0
 40
0.155
  0
CIRCLE
  8
RROTOR
 10
24.8973
 20
18.480833
 30
0.0
 40
0.155
  0
CIRCLE
  8
RROTOR
 10
24.427324
 20
18.209826
 30
0.0
 40
0.155
  0
CIRCLE
  8
RROTOR
 10
24.351528
 20
17.473483
 30
0.0
 40
0.155
  0
CIRCLE
  8
RROTOR
 10
23.790206
 20
17.309003
 30
0.0
 40
0.155
  0
ARC
  8
RROTOR
 10
21.164287
 20
16.9771
 30
0.0
 40
0.155
 50
8.641609
 51
298.607598
  0
CIRCLE
  8
RROTOR
 10
19.247505
 20
17.793073
 30
0.0
 40
0.155
  0
CIRCLE
  8
RROTOR
 10
18.976498
 20
18.263049
 30
0.0
 40
0.155
  0
CIRCLE
  8
RROTOR
 10
18.240156
 20
18.338846
 30
0.0
 40
0.155
  0
CIRCLE
  8
RROTOR
 10
18.075675
 20
18.900168
 30
0.0
 40
0.155
  0
CIRCLE
  8
RROTOR
 10
17.99551
 20
19.458118
 30
0.0
 40
0.155
  0
CIRCLE
  8
RROTOR
 10
17.995799
 20
20.000633
 30
0.0
 40
0.155
  0
CIRCLE
  8
RROTOR
 10
17.396006
 20
20.434446
 30
0.0
 40
0.155
  0
CIRCLE
  8
RROTOR
 10
17.534223
 20
21.002805
 30
0.0
 40
0.155
  0
CIRCLE
  8
RROTOR
 10
20.767305
 20
24.694575
 30
0.0
 40
0.155
  0
CIRCLE
  8
RROTOR
 10
21.201118
 20
25.294368
 30
0.0
 40
0.155
  0
CIRCLE
  8
RROTOR
 10
21.769477
 20
25.156151
 30
0.0
 40
0.155
  0
CIRCLE
  8
RROTOR
 10
22.292759
 20
24.946602
 30
0.0
 40
0.155
  0
CIRCLE
  8
RROTOR
 10
22.762446
 20
24.675094
 30
0.0
 40
0.155
  0
CIRCLE
  8
RROTOR
 10
23.86114
 20
24.573744
 30
0.0
 40
0.155
  0
CIRCLE
  8
RROTOR
 10
23.438035
 20
24.977623
 30
0.0
 40
0.155
  0
ARC
  8
RROTOR
 10
21.728523
 20
20.961851
 30
0.0
 40
3.3245
 50
316.990609
 51
351.373568
  0
ARC
  8
RWHEEL
 62
     1
 10
21.728523
 20
20.961851
 30
0.0
 40
7.65
 50
157.404309
 51
220.649229
  0
ARC
  8
RWHEEL
 62
     1
 10
21.728523
 20
20.961851
 30
0.0
 40
7.85
 50
148.336949
 51
244.867756
  0
LINE
  8
RWHEEL
 62
     1
 10
19.230838
 20
19.083769
 30
0.0
 11
15.526993
 21
24.009559
 31
0.0
  0
LINE
  8
RWHEEL
 62
     1
 10
18.392662
 20
23.471785
 30
0.0
 11
17.078758
 21
26.330956
 31
0.0
  0
LINE
  8
RWHEEL
 62
     1
 10
18.915793
 20
23.051864
 30
0.0
 11
17.268626
 21
26.636244
 31
0.0
  0
LINE
  8
RWHEEL
 62
     1
 10
20.138534
 20
24.472014
 30
0.0
 11
19.530181
 21
26.104447
 31
0.0
  0
ARC
  8
RWHEEL
 62
     1
 10
15.127363
 20
23.709066
 30
0.0
 40
0.5
 50
36.940568
 51
157.40431
  0
ARC
  8
RWHEEL
 62
     1
 10
18.169136
 20
26.832029
 30
0.0
 40
1.2
 50
121.230557
 51
204.680687
  0
ARC
  8
RWHEEL
 62
     1
 10
16.814301
 20
26.427464
 30
0.0
 40
0.5
 50
24.680687
 51
71.712926
  0
ARC
  8
RWHEEL
 62
     1
 10
23.214081
 20
20.240225
 30
0.0
 40
9.494674
 50
126.646342
 51
158.846414
  0
ARC
  8
RWHEEL
 62
     1
 10
18.349743
 20
26.94404
 30
0.0
 40
1.2
 50
113.551563
 51
187.429312
  0
ARC
  8
RWHEEL
 62
     1
 10
20.841319
 20
24.733918
 30
0.0
 40
0.75
 50
200.438724
 51
283.235612
  0
ARC
  8
RWHEEL
 62
     1
 10
19.074149
 20
23.784956
 30
0.0
 40
0.75
 50
204.680687
 51
313.235595
  0
ARC
  8
RWHEEL
 62
     1
 10
20.61083
 20
17.251543
 30
0.0
 40
0.75
 50
324.680687
 51
73.235595
  0
ARC
  8
RWHEEL
 62
     1
 10
18.905419
 20
18.307476
 30
0.0
 40
0.75
 50
320.438724
 51
43.235612
  0
ARC
  8
RWHEEL
 62
     1
 10
18.237185
 20
15.044647
 30
0.0
 40
1.2
 50
233.551563
 51
307.429312
  0
ARC
  8
RWHEEL
 62
     1
 10
21.61069
 20
22.609195
 30
0.0
 40
9.494674
 50
246.646342
 51
278.846414
  0
ARC
  8
RWHEEL
 62
     1
 10
19.452274
 20
13.973204
 30
0.0
 40
0.5
 50
144.680687
 51
191.712926
  0
ARC
  8
RWHEEL
 62
     1
 10
16.832187
 20
17.760539
 30
0.0
 40
2.0
 50
213.177372
 51
320.438724
  0
ARC
  8
RWHEEL
 62
     1
 10
18.424493
 20
14.944243
 30
0.0
 40
1.2
 50
241.230557
 51
324.680687
  0
ARC
  8
RWHEEL
 62
     1
 10
22.649945
 20
13.871471
 30
0.0
 40
0.5
 50
156.940568
 51
277.40431
  0
LINE
  8
RWHEEL
 62
     1
 10
19.483627
 20
17.829798
 30
0.0
 11
18.374075
 21
16.486733
 31
0.0
  0
LINE
  8
RWHEEL
 62
     1
 10
21.324883
 20
17.480949
 30
0.0
 11
19.044303
 21
14.26227
 31
0.0
  0
LINE
  8
RWHEEL
 62
     1
 10
21.222787
 20
16.817943
 30
0.0
 11
19.403624
 21
14.250483
 31
0.0
  0
LINE
  8
RWHEEL
 62
     1
 10
24.603833
 20
19.737833
 30
0.0
 11
22.189895
 21
14.067314
 31
0.0
  0
CIRCLE
  8
RWHEEL
 62
     1
 10
21.728523
 20
20.961851
 30
0.0
 40
2.82
  0
CIRCLE
  8
RWHEEL
 62
     1
 10
21.728523
 20
20.961851
 30
0.0
 40
1.4
  0
ARC
  8
RWHEEL
 62
     1
 10
21.728523
 20
20.961851
 30
0.0
 40
7.65
 50
277.40431
 51
340.649229
  0
ARC
  8
RWHEEL
 62
     1
 10
21.728523
 20
20.961851
 30
0.0
 40
9.15
 50
84.730265
 51
354.905562
  0
ARC
  8
RWHEEL
 62
     1
 10
21.728523
 20
20.961851
 30
0.0
 40
8.95
 50
85.470631
 51
355.02722
  0
LINE
  8
BARS
 62
     8
 10
68.862693
 20
44.246815
 30
0.0
 11
68.634734
 21
44.612686
 31
0.0
  0
LINE
  8
BARS
 62
     8
 10
69.074878
 20
44.379018
 30
0.0
 11
68.930396
 21
44.610909
 31
0.0
  0
LINE
  8
BARS
 62
     8
 10
68.74387
 20
44.172781
 30
0.0
 11
69.193701
 21
44.453052
 31
0.0
  0
LINE
  8
BARS
 62
     8
 10
69.71005
 20
43.62432
 30
0.0
 11
69.260219
 21
43.344049
 31
0.0
  0
LINE
  8
BARS
 62
     8
 10
69.193701
 20
44.453052
 30
0.0
 11
69.442999
 21
44.052933
 31
0.0
  0
LINE
  8
BARS
 62
     8
 10
69.536741
 20
43.831426
 30
0.0
 11
69.548762
 21
43.883185
 31
0.0
  0
LINE
  8
BARS
 62
     8
 10
69.442999
 20
44.052933
 30
0.0
 11
69.430978
 21
44.001173
 31
0.0
  0
LINE
  8
BARS
 62
     8
 10
68.74387
 20
44.172781
 30
0.0
 11
68.993168
 21
43.772662
 31
0.0
  0
LINE
  8
BARS
 62
     8
 10
69.633372
 20
43.747387
 30
0.0
 11
69.71005
 21
43.62432
 31
0.0
  0
LINE
  8
BARS
 62
     8
 10
69.527609
 20
43.917135
 30
0.0
 11
69.548762
 21
43.883185
 31
0.0
  0
LINE
  8
BARS
 62
     8
 10
69.527609
 20
43.917135
 30
0.0
 11
69.47585
 21
43.929155
 31
0.0
  0
LINE
  8
BARS
 62
     8
 10
69.581612
 20
43.759408
 30
0.0
 11
69.633372
 21
43.747387
 31
0.0
  0
ARC
  8
BARS
 62
     8
 10
69.595186
 20
43.817852
 30
0.0
 40
0.06
 50
166.925331
 51
256.925331
  0
ARC
  8
BARS
 62
     8
 10
69.489423
 20
43.9876
 30
0.0
 40
0.06
 50
166.925331
 51
256.925331
  0
LINE
  8
BARS
 62
     8
 10
69.633372
 20
43.747387
 30
0.0
 11
69.183541
 21
43.467116
 31
0.0
  0
LINE
  8
BARS
 62
     8
 10
69.548762
 20
43.883185
 30
0.0
 11
69.098931
 21
43.602914
 31
0.0
  0
LINE
  8
BARS
 62
     8
 10
69.527609
 20
43.917135
 30
0.0
 11
69.077778
 21
43.636864
 31
0.0
  0
LINE
  8
BARS
 62
     8
 10
69.442999
 20
44.052933
 30
0.0
 11
68.993168
 21
43.772662
 31
0.0
  0
POLYLINE
  8
BARS
 62
     8
 66
     1
 10
0.0
 20
0.0
 30
0.0
  0
VERTEX
  8
BARS
 62
     8
 10
65.1286
 20
42.513354
 30
0.0
 42
-0.05537
 70
     2
 50
281.441173
  0
VERTEX
  8
BARS
 62
     8
 10
65.118001
 20
42.414743
 30
0.0
 42
-0.005614
 50
38.553619
  0
VERTEX
  8
BARS
 62
     8
 10
65.117118
 20
42.410954
 30
0.0
 42
-0.171711
 50
38.553619
  0
SEQEND
  8
BARS
  0
LINE
  8
BARS
 62
     8
 10
68.282447
 20
44.26956
 30
0.0
 11
68.491449
 21
44.43551
 31
0.0
  0
LINE
  8
BARS
 62
     8
 10
68.247413
 20
44.29065
 30
0.0
 11
68.453806
 21
44.454528
 31
0.0
  0
POLYLINE
  8
BARS
 62
     8
 66
     1
 10
0.0
 20
0.0
 30
0.0
  0
VERTEX
  8
BARS
 62
     8
 10
68.22628
 20
44.324609
 30
0.0
 50
226.527494
  0
VERTEX
  8
BARS
 62
     8
 10
68.225213
 20
44.301657
 30
0.0
 50
3.553619
  0
SEQEND
  8
BARS
  0
POLYLINE
  8
BARS
 62
     8
 66
     1
 10
0.0
 20
0.0
 30
0.0
  0
VERTEX
  8
BARS
 62
     8
 10
68.225213
 20
44.301657
 30
0.0
 50
3.553619
  0
VERTEX
  8
BARS
 62
     8
 10
68.243328
 20
44.270312
 30
0.0
 42
0.107177
 50
3.553619
  0
VERTEX
  8
BARS
 62
     8
 10
68.284357
 20
44.245269
 30
0.0
 42
0.078151
 70
     2
 50
340.835844
  0
VERTEX
  8
BARS
 62
     8
 10
68.339948
 20
44.23524
 30
0.0
 50
340.835844
  0
VERTEX
  8
BARS
 62
     8
 10
68.394606
 20
44.242787
 30
0.0
 50
3.553619
  0
VERTEX
  8
BARS
 62
     8
 10
68.451114
 20
44.264668
 30
0.0
 42
0.078151
 50
3.553619
  0
VERTEX
  8
BARS
 62
     8
 10
68.491379
 20
44.295666
 30
0.0
 42
0.107177
 70
     2
 50
46.527494
  0
VERTEX
  8
BARS
 62
     8
 10
68.516307
 20
44.336765
 30
0.0
 50
46.527494
  0
VERTEX
  8
BARS
 62
     8
 10
68.517987
 20
44.372929
 30
0.0
 50
3.553619
  0
VERTEX
  8
BARS
 62
     8
 10
68.517797
 20
44.373258
 30
0.0
 42
0.107177
 50
3.553619
  0
SEQEND
  8
BARS
  0
POLYLINE
  8
BARS
 62
     8
 66
     1
 10
0.0
 20
0.0
 30
0.0
 70
     1
  0
VERTEX
  8
BARS
 62
     8
 10
68.226089
 20
44.324939
 30
0.0
 50
3.553619
  0
VERTEX
  8
BARS
 62
     8
 10
68.244204
 20
44.293593
 30
0.0
 42
0.107177
 50
3.553619
  0
VERTEX
  8
BARS
 62
     8
 10
68.285233
 20
44.26855
 30
0.0
 42
0.078151
 70
     2
 50
340.835844
  0
VERTEX
  8
BARS
 62
     8
 10
68.340824
 20
44.258521
 30
0.0
 50
340.835844
  0
VERTEX
  8
BARS
 62
     8
 10
68.395482
 20
44.266068
 30
0.0
 50
3.553619
  0
VERTEX
  8
BARS
 62
     8
 10
68.45199
 20
44.287949
 30
0.0
 42
0.078151
 50
3.553619
  0
VERTEX
  8
BARS
 62
     8
 10
68.492255
 20
44.318947
 30
0.0
 42
0.107177
 70
     2
 50
46.527494
  0
VERTEX
  8
BARS
 62
     8
 10
68.517183
 20
44.360046
 30
0.0
 50
46.527494
  0
VERTEX
  8
BARS
 62
     8
 10
68.518863
 20
44.39621
 30
0.0
 50
3.553619
  0
VERTEX
  8
BARS
 62
     8
 10
68.500749
 20
44.427555
 30
0.0
 42
0.107177
 50
3.553619
  0
VERTEX
  8
BARS
 62
     8
 10
68.45972
 20
44.452598
 30
0.0
 42
0.078151
 70
     2
 50
160.835844
  0
VERTEX
  8
BARS
 62
     8
 10
68.409712
 20
44.46162
 30
0.0
 50
160.835844
  0
VERTEX
  8
BARS
 62
     8
 10
68.34947
 20
44.45508
 30
0.0
 50
3.553619
  0
VERTEX
  8
BARS
 62
     8
 10
68.292963
 20
44.433199
 30
0.0
 42
0.078151
 50
3.553619
  0
VERTEX
  8
BARS
 62
     8
 10
68.252698
 20
44.402202
 30
0.0
 42
0.107177
 70
     2
 50
226.527494
  0
VERTEX
  8
BARS
 62
     8
 10
68.22777
 20
44.361102
 30
0.0
 50
226.527494
  0
SEQEND
  8
BARS
  0
LINE
  8
BARS
 62
     7
 10
66.967923
 20
43.831709
 30
0.0
 11
67.001944
 21
43.526898
 31
0.0
  0
ARC
  8
BARS
 62
     7
 10
68.3757
 20
43.460697
 30
0.0
 40
0.3
 50
286.424693
 51
313.511285
  0
ARC
  8
BARS
 62
     7
 10
68.587153
 20
43.533111
 30
0.0
 40
0.01
 50
181.007115
 51
333.375959
  0
LINE
  8
BARS
 62
     7
 10
68.577154
 20
43.532935
 30
0.0
 11
68.576357
 21
43.578294
 31
0.0
  0
ARC
  8
BARS
 62
     7
 10
67.755372
 20
43.678179
 30
0.0
 40
0.3
 50
245.017991
 51
295.298248
  0
ARC
  8
BARS
 62
     7
 10
68.478702
 20
43.444006
 30
0.0
 40
0.1
 50
1.007115
 51
104.168598
  0
ARC
  8
BARS
 62
     7
 10
68.476372
 20
43.576536
 30
0.0
 40
0.1
 50
1.007115
 51
115.298248
  0
LINE
  8
BARS
 62
     7
 10
68.582249
 20
43.243125
 30
0.0
 11
68.577154
 21
43.532935
 31
0.0
  0
LINE
  8
BARS
 62
     7
 10
67.883571
 20
43.40695
 30
0.0
 11
68.433639
 21
43.666946
 31
0.0
  0
LINE
  8
BARS
 62
     7
 10
67.405395
 20
43.510277
 30
0.0
 11
67.628671
 21
43.406246
 31
0.0
  0
LINE
  8
BARS
 62
     7
 10
67.983551
 20
43.833412
 30
0.0
 11
68.52937
 21
43.661337
 31
0.0
  0
ARC
  8
BARS
 62
     7
 10
66.290123
 20
43.077555
 30
0.0
 40
1.0
 50
333.477275
 51
8.154465
  0
ARC
  8
BARS
 62
     7
 10
68.998606
 20
41.347604
 30
0.0
 40
1.902992
 50
106.424693
 51
123.392132
  0
ARC
  8
BARS
 62
     7
 10
68.50163
 20
42.101533
 30
0.0
 40
1.0
 50
123.392132
 51
148.107418
  0
ARC
  8
BARS
 62
     7
 10
71.646324
 20
40.144698
 30
0.0
 40
4.703823
 50
148.107418
 51
163.643015
  0
ARC
  8
BARS
 62
     7
 10
68.448774
 20
42.466129
 30
0.0
 40
1.0
 50
121.458716
 51
146.174002
  0
ARC
  8
BARS
 62
     7
 10
68.920031
 20
41.695862
 30
0.0
 40
1.902992
 50
104.168598
 51
121.458716
  0
ARC
  8
BARS
 62
     7
 10
71.525658
 20
40.404312
 30
0.0
 40
4.703823
 50
146.174002
 51
167.273833
  0
ARC
  8
BARS
 62
     7
 10
71.393661
 20
40.530497
 30
0.0
 40
4.703823
 50
153.477275
 51
171.217722
  0
CIRCLE
  8
BARS
 62
     7
 10
67.087984
 20
41.097092
 30
0.0
 40
0.375
  0
LINE
  8
BARS
 62
     7
 10
68.645739
 20
43.898862
 30
0.0
 11
68.621202
 21
44.293971
 31
0.0
  0
ARC
  8
BARS
 62
     7
 10
68.531658
 20
44.122506
 30
0.0
 40
0.1
 50
266.968755
 51
3.553619
  0
LINE
  8
BARS
 62
     7
 10
67.779683
 20
44.062186
 30
0.0
 11
68.52637
 21
44.022646
 31
0.0
  0
ARC
  8
BARS
 62
     7
 10
68.521395
 20
44.287773
 30
0.0
 40
0.1
 50
266.968755
 51
38.958956
  0
LINE
  8
BARS
 62
     7
 10
68.599154
 20
44.350649
 30
0.0
 11
68.492436
 21
44.482628
 31
0.0
  0
LINE
  8
BARS
 62
     7
 10
67.849425
 20
44.223217
 30
0.0
 11
68.516107
 21
44.187913
 31
0.0
  0
ARC
  8
BARS
 62
     7
 10
67.175403
 20
43.924481
 30
0.0
 40
0.28538
 50
18.01747
 51
227.027119
  0
ARC
  8
BARS
 62
     7
 10
67.200183
 20
43.970071
 30
0.0
 40
0.359361
 50
0.800272
 51
233.1303
  0
LINE
  8
BARS
 62
     7
 10
65.891487
 20
43.433574
 30
0.0
 11
66.556209
 21
43.963334
 31
0.0
  0
LINE
  8
BARS
 62
     8
 10
63.685297
 20
41.647501
 30
0.0
 11
64.0603
 21
41.946365
 31
0.0
  0
LINE
  8
BARS
 62
     8
 10
63.785887
 20
41.35001
 30
0.0
 11
64.105394
 21
41.604646
 31
0.0
  0
LINE
  8
BARS
 62
     8
 10
63.769662
 20
41.430328
 30
0.0
 11
64.116876
 21
41.707045
 31
0.0
  0
LINE
  8
BARS
 62
     8
 10
63.742972
 20
41.517459
 30
0.0
 11
64.105466
 21
41.806354
 31
0.0
  0
LINE
  8
BARS
 62
     8
 10
64.138502
 20
42.00869
 30
0.0
 11
64.52706
 21
42.318357
 31
0.0
  0
LINE
  8
BARS
 62
     8
 10
64.183669
 20
41.868679
 30
0.0
 11
64.572227
 21
42.178346
 31
0.0
  0
LINE
  8
BARS
 62
     8
 10
64.195078
 20
41.76937
 30
0.0
 11
64.583637
 21
42.079037
 31
0.0
  0
LINE
  8
BARS
 62
     8
 10
64.183597
 20
41.666971
 30
0.0
 11
64.572155
 21
41.976638
 31
0.0
  0
LINE
  8
BARS
 62
     8
 10
64.650357
 20
42.038963
 30
0.0
 11
65.038915
 21
42.34863
 31
0.0
  0
LINE
  8
BARS
 62
     8
 10
64.661839
 20
42.141362
 30
0.0
 11
65.050397
 21
42.451029
 31
0.0
  0
LINE
  8
BARS
 62
     8
 10
64.650429
 20
42.24067
 30
0.0
 11
65.038987
 21
42.550338
 31
0.0
  0
LINE
  8
BARS
 62
     8
 10
64.605263
 20
42.380681
 30
0.0
 11
64.993821
 21
42.690349
 31
0.0
  0
LINE
  8
BARS
 62
     8
 10
65.072023
 20
42.752673
 30
0.0
 11
65.460581
 21
43.06234
 31
0.0
  0
LINE
  8
BARS
 62
     8
 10
65.11719
 20
42.612662
 30
0.0
 11
65.505748
 21
42.922329
 31
0.0
  0
LINE
  8
BARS
 62
     8
 10
65.1286
 20
42.513354
 30
0.0
 11
65.517158
 21
42.823021
 31
0.0
  0
LINE
  8
BARS
 62
     8
 10
65.117118
 20
42.410954
 30
0.0
 11
65.505676
 21
42.720622
 31
0.0
  0
POLYLINE
  8
BARS
 62
     8
 66
     1
 10
0.0
 20
0.0
 30
0.0
  0
VERTEX
  8
BARS
 62
     8
 10
64.0603
 20
41.946365
 30
0.0
 42
-0.048313
 50
38.553619
  0
VERTEX
  8
BARS
 62
     8
 10
64.105466
 20
41.806354
 30
0.0
 42
-0.104726
 70
     2
 50
281.441173
  0
SEQEND
  8
BARS
  0
POLYLINE
  8
BARS
 62
     8
 66
     1
 10
0.0
 20
0.0
 30
0.0
  0
VERTEX
  8
BARS
 62
     8
 10
64.52706
 20
42.318357
 30
0.0
 42
-0.048313
 50
38.553619
  0
VERTEX
  8
BARS
 62
     8
 10
64.572227
 20
42.178346
 30
0.0
 42
-0.104726
 70
     2
 50
281.441173
  0
SEQEND
  8
BARS
  0
POLYLINE
  8
BARS
 62
     8
 66
     1
 10
0.0
 20
0.0
 30
0.0
  0
VERTEX
  8
BARS
 62
     8
 10
64.605263
 20
42.380681
 30
0.0
 42
-0.048313
 50
38.553619
  0
VERTEX
  8
BARS
 62
     8
 10
64.650429
 20
42.24067
 30
0.0
 42
-0.104726
 70
     2
 50
281.441173
  0
SEQEND
  8
BARS
  0
POLYLINE
  8
BARS
 62
     8
 66
     1
 10
0.0
 20
0.0
 30
0.0
  0
VERTEX
  8
BARS
 62
     8
 10
64.993821
 20
42.690349
 30
0.0
 42
-0.048313
 50
38.553619
  0
VERTEX
  8
BARS
 62
     8
 10
65.038987
 20
42.550338
 30
0.0
 42
-0.104726
 70
     2
 50
281.441173
  0
SEQEND
  8
BARS
  0
POLYLINE
  8
BARS
 62
     8
 66
     1
 10
0.0
 20
0.0
 30
0.0
  0
VERTEX
  8
BARS
 62
     8
 10
65.072023
 20
42.752673
 30
0.0
 42
-0.048313
 50
38.553619
  0
VERTEX
  8
BARS
 62
     8
 10
65.11719
 20
42.612662
 30
0.0
 42
-0.104726
 70
     2
 50
281.441173
  0
SEQEND
  8
BARS
  0
POLYLINE
  8
BARS
 62
     8
 66
     1
 10
0.0
 20
0.0
 30
0.0
  0
VERTEX
  8
BARS
 62
     8
 10
65.460581
 20
43.06234
 30
0.0
 42
-0.048313
 50
38.553619
  0
VERTEX
  8
BARS
 62
     8
 10
65.505748
 20
42.922329
 30
0.0
 42
-0.104726
 70
     2
 50
281.441173
  0
SEQEND
  8
BARS
  0
POLYLINE
  8
BARS
 62
     8
 66
     1
 10
0.0
 20
0.0
 30
0.0
  0
VERTEX
  8
BARS
 62
     8
 10
64.138502
 20
42.00869
 30
0.0
 42
-0.048313
 50
38.553619
  0
VERTEX
  8
BARS
 62
     8
 10
64.183669
 20
41.868679
 30
0.0
 42
-0.104726
 70
     2
 50
281.441173
  0
SEQEND
  8
BARS
  0
POLYLINE
  8
BARS
 62
     8
 66
     1
 10
0.0
 20
0.0
 30
0.0
  0
VERTEX
  8
BARS
 62
     8
 10
64.661839
 20
42.141362
 30
0.0
 42
-0.05537
 70
     2
 50
281.441173
  0
VERTEX
  8
BARS
 62
     8
 10
64.65124
 20
42.042752
 30
0.0
 42
-0.005614
 50
38.553619
  0
VERTEX
  8
BARS
 62
     8
 10
64.650357
 20
42.038963
 30
0.0
 42
-0.171711
 50
38.553619
  0
SEQEND
  8
BARS
  0
POLYLINE
  8
BARS
 62
     8
 66
     1
 10
0.0
 20
0.0
 30
0.0
  0
VERTEX
  8
BARS
 62
     8
 10
64.583637
 20
42.079037
 30
0.0
 42
-0.05537
 70
     2
 50
281.441173
  0
VERTEX
  8
BARS
 62
     8
 10
64.573038
 20
41.980427
 30
0.0
 42
-0.005614
 50
38.553619
  0
VERTEX
  8
BARS
 62
     8
 10
64.572155
 20
41.976638
 30
0.0
 42
-0.171711
 50
38.553619
  0
SEQEND
  8
BARS
  0
POLYLINE
  8
BARS
 62
     8
 66
     1
 10
0.0
 20
0.0
 30
0.0
  0
VERTEX
  8
BARS
 62
     8
 10
64.195078
 20
41.76937
 30
0.0
 42
-0.05537
 70
     2
 50
281.441173
  0
VERTEX
  8
BARS
 62
     8
 10
64.18448
 20
41.67076
 30
0.0
 42
-0.005614
 50
38.553619
  0
VERTEX
  8
BARS
 62
     8
 10
64.183597
 20
41.666971
 30
0.0
 42
-0.171711
 50
38.553619
  0
SEQEND
  8
BARS
  0
POLYLINE
  8
BARS
 62
     8
 66
     1
 10
0.0
 20
0.0
 30
0.0
  0
VERTEX
  8
BARS
 62
     8
 10
64.116876
 20
41.707045
 30
0.0
 42
-0.05537
 70
     2
 50
281.441173
  0
VERTEX
  8
BARS
 62
     8
 10
64.106277
 20
41.608435
 30
0.0
 42
-0.005614
 50
38.553619
  0
VERTEX
  8
BARS
 62
     8
 10
64.105394
 20
41.604646
 30
0.0
 42
-0.171711
 50
38.553619
  0
SEQEND
  8
BARS
  0
POLYLINE
  8
BARS
 62
     8
 66
     1
 10
0.0
 20
0.0
 30
0.0
  0
VERTEX
  8
BARS
 62
     8
 10
65.050397
 20
42.451029
 30
0.0
 42
-0.05537
 70
     2
 50
281.441173
  0
VERTEX
  8
BARS
 62
     8
 10
65.039798
 20
42.352419
 30
0.0
 42
-0.005614
 50
38.553619
  0
VERTEX
  8
BARS
 62
     8
 10
65.038915
 20
42.34863
 30
0.0
 42
-0.171711
 50
38.553619
  0
SEQEND
  8
BARS
  0
POLYLINE
  8
BARS
 62
     8
 66
     1
 10
0.0
 20
0.0
 30
0.0
  0
VERTEX
  8
BARS
 62
     8
 10
65.517158
 20
42.823021
 30
0.0
 42
-0.05537
 70
     2
 50
281.441173
  0
VERTEX
  8
BARS
 62
     8
 10
65.506559
 20
42.724411
 30
0.0
 42
-0.005614
 50
38.553619
  0
VERTEX
  8
BARS
 62
     8
 10
65.505676
 20
42.720622
 30
0.0
 42
-0.171711
 50
38.553619
  0
SEQEND
  8
BARS
  0
POLYLINE
  8
BARS
 62
     8
 66
     1
 10
0.0
 20
0.0
 30
0.0
  0
VERTEX
  8
BARS
 62
     8
 10
65.382066
 20
43.215252
 30
0.0
 42
0.035278
 50
101.441173
  0
VERTEX
  8
BARS
 62
     8
 10
65.306092
 20
43.314545
 30
0.0
 42
0.025727
 50
38.553619
  0
VERTEX
  8
BARS
 62
     8
 10
65.223153
 20
43.408287
 30
0.0
 42
0.066151
 50
38.553619
  0
SEQEND
  8
BARS
  0
POLYLINE
  8
BARS
 62
     8
 66
     1
 10
0.0
 20
0.0
 30
0.0
  0
VERTEX
  8
BARS
 62
     8
 10
64.993508
 20
42.905585
 30
0.0
 42
0.035278
 50
101.441173
  0
VERTEX
  8
BARS
 62
     8
 10
64.917534
 20
43.004878
 30
0.0
 42
0.025727
 50
38.553619
  0
VERTEX
  8
BARS
 62
     8
 10
64.834595
 20
43.098619
 30
0.0
 42
0.066151
 50
38.553619
  0
SEQEND
  8
BARS
  0
POLYLINE
  8
BARS
 62
     8
 66
     1
 10
0.0
 20
0.0
 30
0.0
  0
VERTEX
  8
BARS
 62
     8
 10
64.915305
 20
42.84326
 30
0.0
 42
0.035278
 50
101.441173
  0
VERTEX
  8
BARS
 62
     8
 10
64.839332
 20
42.942553
 30
0.0
 42
0.025727
 50
38.553619
  0
VERTEX
  8
BARS
 62
     8
 10
64.756393
 20
43.036295
 30
0.0
 42
0.066151
 50
38.553619
  0
SEQEND
  8
BARS
  0
POLYLINE
  8
BARS
 62
     8
 66
     1
 10
0.0
 20
0.0
 30
0.0
  0
VERTEX
  8
BARS
 62
     8
 10
64.526747
 20
42.533593
 30
0.0
 42
0.035278
 50
101.441173
  0
VERTEX
  8
BARS
 62
     8
 10
64.450774
 20
42.632886
 30
0.0
 42
0.025727
 50
38.553619
  0
VERTEX
  8
BARS
 62
     8
 10
64.367835
 20
42.726628
 30
0.0
 42
0.066151
 50
38.553619
  0
SEQEND
  8
BARS
  0
POLYLINE
  8
BARS
 62
     8
 66
     1
 10
0.0
 20
0.0
 30
0.0
  0
VERTEX
  8
BARS
 62
     8
 10
64.448545
 20
42.471268
 30
0.0
 42
0.035278
 50
101.441173
  0
VERTEX
  8
BARS
 62
     8
 10
64.372571
 20
42.570561
 30
0.0
 42
0.025727
 50
38.553619
  0
VERTEX
  8
BARS
 62
     8
 10
64.289632
 20
42.664303
 30
0.0
 42
0.066151
 50
38.553619
  0
SEQEND
  8
BARS
  0
POLYLINE
  8
BARS
 62
     8
 66
     1
 10
0.0
 20
0.0
 30
0.0
  0
VERTEX
  8
BARS
 62
     8
 10
64.059987
 20
42.161601
 30
0.0
 42
0.035278
 50
101.441173
  0
VERTEX
  8
BARS
 62
     8
 10
63.984013
 20
42.260894
 30
0.0
 42
0.025727
 50
38.553619
  0
VERTEX
  8
BARS
 62
     8
 10
63.901074
 20
42.354636
 30
0.0
 42
0.062181
 50
38.553619
  0
SEQEND
  8
BARS
  0
POLYLINE
  8
BARS
 62
     8
 66
     1
 10
0.0
 20
0.0
 30
0.0
  0
VERTEX
  8
BARS
 62
     8
 10
63.981784
 20
42.099276
 30
0.0
 42
0.035278
 50
101.441173
  0
VERTEX
  8
BARS
 62
     8
 10
63.905811
 20
42.198569
 30
0.0
 42
0.025727
 50
38.553619
  0
VERTEX
  8
BARS
 62
     8
 10
63.822871
 20
42.292311
 30
0.0
 42
0.066151
 50
38.553619
  0
SEQEND
  8
BARS
  0
POLYLINE
  8
BARS
 62
     8
 66
     1
 10
0.0
 20
0.0
 30
0.0
  0
VERTEX
  8
BARS
 62
     8
 10
64.874054
 20
43.629961
 30
0.0
 42
0.05537
 70
     2
 50
155.666066
  0
VERTEX
  8
BARS
 62
     8
 10
64.775565
 20
43.641632
 30
0.0
 42
0.005614
 50
155.666066
  0
VERTEX
  8
BARS
 62
     8
 10
64.771675
 20
43.641617
 30
0.0
 42
0.171711
 50
38.553619
  0
SEQEND
  8
BARS
  0
POLYLINE
  8
BARS
 62
     8
 66
     1
 10
0.0
 20
0.0
 30
0.0
  0
VERTEX
  8
BARS
 62
     8
 10
64.485496
 20
43.320294
 30
0.0
 42
0.05537
 70
     2
 50
155.666066
  0
VERTEX
  8
BARS
 62
     8
 10
64.387007
 20
43.331965
 30
0.0
 42
0.005614
 50
155.666066
  0
VERTEX
  8
BARS
 62
     8
 10
64.383117
 20
43.33195
 30
0.0
 42
0.171711
 50
38.553619
  0
SEQEND
  8
BARS
  0
POLYLINE
  8
BARS
 62
     8
 66
     1
 10
0.0
 20
0.0
 30
0.0
  0
VERTEX
  8
BARS
 62
     8
 10
64.407294
 20
43.257969
 30
0.0
 42
0.05537
 70
     2
 50
155.666066
  0
VERTEX
  8
BARS
 62
     8
 10
64.308805
 20
43.269641
 30
0.0
 42
0.005614
 50
155.666066
  0
VERTEX
  8
BARS
 62
     8
 10
64.304914
 20
43.269625
 30
0.0
 42
0.171711
 50
38.553619
  0
SEQEND
  8
BARS
  0
POLYLINE
  8
BARS
 62
     8
 66
     1
 10
0.0
 20
0.0
 30
0.0
  0
VERTEX
  8
BARS
 62
     8
 10
63.473773
 20
42.513986
 30
0.0
 42
0.05537
 70
     2
 50
155.666066
  0
VERTEX
  8
BARS
 62
     8
 10
63.375283
 20
42.525657
 30
0.0
 42
0.005614
 50
155.666066
  0
VERTEX
  8
BARS
 62
     8
 10
63.371393
 20
42.525642
 30
0.0
 42
0.171711
 50
38.553619
  0
SEQEND
  8
BARS
  0
POLYLINE
  8
BARS
 62
     8
 66
     1
 10
0.0
 20
0.0
 30
0.0
  0
VERTEX
  8
BARS
 62
     8
 10
63.551975
 20
42.576311
 30
0.0
 42
0.05537
 70
     2
 50
155.666066
  0
VERTEX
  8
BARS
 62
     8
 10
63.453486
 20
42.587982
 30
0.0
 42
0.005614
 50
155.666066
  0
VERTEX
  8
BARS
 62
     8
 10
63.449596
 20
42.587966
 30
0.0
 42
0.171711
 50
38.553619
  0
SEQEND
  8
BARS
  0
POLYLINE
  8
BARS
 62
     8
 66
     1
 10
0.0
 20
0.0
 30
0.0
  0
VERTEX
  8
BARS
 62
     8
 10
63.940533
 20
42.885978
 30
0.0
 42
0.05537
 70
     2
 50
155.666066
  0
VERTEX
  8
BARS
 62
     8
 10
63.842044
 20
42.897649
 30
0.0
 42
0.005614
 50
155.666066
  0
VERTEX
  8
BARS
 62
     8
 10
63.838154
 20
42.897634
 30
0.0
 42
0.171711
 50
38.553619
  0
SEQEND
  8
BARS
  0
POLYLINE
  8
BARS
 62
     8
 66
     1
 10
0.0
 20
0.0
 30
0.0
  0
VERTEX
  8
BARS
 62
     8
 10
64.018736
 20
42.948302
 30
0.0
 42
0.05537
 70
     2
 50
155.666066
  0
VERTEX
  8
BARS
 62
     8
 10
63.920247
 20
42.959973
 30
0.0
 42
0.005614
 50
155.666066
  0
VERTEX
  8
BARS
 62
     8
 10
63.916356
 20
42.959958
 30
0.0
 42
0.171711
 50
38.553619
  0
SEQEND
  8
BARS
  0
POLYLINE
  8
BARS
 62
     8
 66
     1
 10
0.0
 20
0.0
 30
0.0
  0
VERTEX
  8
BARS
 62
     8
 10
63.772638
 20
42.467762
 30
0.0
 42
0.048313
 50
38.553619
  0
VERTEX
  8
BARS
 62
     8
 10
63.646234
 20
42.54303
 30
0.0
 42
0.104726
 70
     2
 50
155.666066
  0
SEQEND
  8
BARS
  0
POLYLINE
  8
BARS
 62
     8
 66
     1
 10
0.0
 20
0.0
 30
0.0
  0
VERTEX
  8
BARS
 62
     8
 10
65.094717
 20
43.521413
 30
0.0
 42
0.048313
 50
38.553619
  0
VERTEX
  8
BARS
 62
     8
 10
64.968313
 20
43.596681
 30
0.0
 42
0.104726
 70
     2
 50
155.666066
  0
SEQEND
  8
BARS
  0
POLYLINE
  8
BARS
 62
     8
 66
     1
 10
0.0
 20
0.0
 30
0.0
  0
VERTEX
  8
BARS
 62
     8
 10
64.706159
 20
43.211745
 30
0.0
 42
0.048313
 50
38.553619
  0
VERTEX
  8
BARS
 62
     8
 10
64.579755
 20
43.287014
 30
0.0
 42
0.104726
 70
     2
 50
155.666066
  0
SEQEND
  8
BARS
  0
POLYLINE
  8
BARS
 62
     8
 66
     1
 10
0.0
 20
0.0
 30
0.0
  0
VERTEX
  8
BARS
 62
     8
 10
64.627956
 20
43.149421
 30
0.0
 42
0.048313
 50
38.553619
  0
VERTEX
  8
BARS
 62
     8
 10
64.501553
 20
43.224689
 30
0.0
 42
0.104726
 70
     2
 50
155.666066
  0
SEQEND
  8
BARS
  0
POLYLINE
  8
BARS
 62
     8
 66
     1
 10
0.0
 20
0.0
 30
0.0
  0
VERTEX
  8
BARS
 62
     8
 10
64.239398
 20
42.839754
 30
0.0
 42
0.048313
 50
38.553619
  0
VERTEX
  8
BARS
 62
     8
 10
64.112995
 20
42.915022
 30
0.0
 42
0.104726
 70
     2
 50
155.666066
  0
SEQEND
  8
BARS
  0
POLYLINE
  8
BARS
 62
     8
 66
     1
 10
0.0
 20
0.0
 30
0.0
  0
VERTEX
  8
BARS
 62
     8
 10
64.161196
 20
42.777429
 30
0.0
 42
0.048313
 50
38.553619
  0
VERTEX
  8
BARS
 62
     8
 10
64.034792
 20
42.852697
 30
0.0
 42
0.104726
 70
     2
 50
155.666066
  0
SEQEND
  8
BARS
  0
POLYLINE
  8
BARS
 62
     8
 66
     1
 10
0.0
 20
0.0
 30
0.0
  0
VERTEX
  8
BARS
 62
     8
 10
63.694435
 20
42.405437
 30
0.0
 42
0.048313
 50
38.553619
  0
VERTEX
  8
BARS
 62
     8
 10
63.568032
 20
42.480705
 30
0.0
 42
0.104726
 70
     2
 50
155.666066
  0
SEQEND
  8
BARS
  0
LINE
  8
BARS
 62
     8
 10
64.383117
 20
43.33195
 30
0.0
 11
64.771675
 21
43.641617
 31
0.0
  0
LINE
  8
BARS
 62
     8
 10
64.485496
 20
43.320294
 30
0.0
 11
64.874054
 21
43.629961
 31
0.0
  0
LINE
  8
BARS
 62
     8
 10
64.579755
 20
43.287014
 30
0.0
 11
64.968313
 21
43.596681
 31
0.0
  0
LINE
  8
BARS
 62
     8
 10
64.706159
 20
43.211745
 30
0.0
 11
65.094717
 21
43.521413
 31
0.0
  0
LINE
  8
BARS
 62
     8
 10
64.239398
 20
42.839754
 30
0.0
 11
64.627956
 21
43.149421
 31
0.0
  0
LINE
  8
BARS
 62
     8
 10
64.112995
 20
42.915022
 30
0.0
 11
64.501553
 21
43.224689
 31
0.0
  0
LINE
  8
BARS
 62
     8
 10
64.018736
 20
42.948302
 30
0.0
 11
64.407294
 21
43.257969
 31
0.0
  0
LINE
  8
BARS
 62
     8
 10
63.916356
 20
42.959958
 30
0.0
 11
64.304914
 21
43.269625
 31
0.0
  0
LINE
  8
BARS
 62
     8
 10
63.449596
 20
42.587966
 30
0.0
 11
63.838154
 21
42.897634
 31
0.0
  0
LINE
  8
BARS
 62
     8
 10
63.551975
 20
42.576311
 30
0.0
 11
63.940533
 21
42.885978
 31
0.0
  0
LINE
  8
BARS
 62
     8
 10
63.646234
 20
42.54303
 30
0.0
 11
64.034792
 21
42.852697
 31
0.0
  0
LINE
  8
BARS
 62
     8
 10
63.772638
 20
42.467762
 30
0.0
 11
64.161196
 21
42.777429
 31
0.0
  0
LINE
  8
BARS
 62
     8
 10
63.205537
 20
42.19181
 30
0.0
 11
63.568032
 21
42.480705
 31
0.0
  0
LINE
  8
BARS
 62
     8
 10
63.126558
 20
42.237268
 30
0.0
 11
63.473773
 21
42.513986
 31
0.0
  0
LINE
  8
BARS
 62
     8
 10
63.051886
 20
42.271006
 30
0.0
 11
63.371393
 21
42.525642
 31
0.0
  0
LINE
  8
BARS
 62
     8
 10
63.319433
 20
42.106573
 30
0.0
 11
63.694435
 21
42.405437
 31
0.0
  0
LINE
  8
BARS
 62
     8
 10
64.993508
 20
42.905585
 30
0.0
 11
65.382066
 21
43.215252
 31
0.0
  0
LINE
  8
BARS
 62
     8
 10
64.834595
 20
43.098619
 30
0.0
 11
65.223153
 21
43.408287
 31
0.0
  0
LINE
  8
BARS
 62
     8
 10
64.059987
 20
42.161601
 30
0.0
 11
64.448545
 21
42.471268
 31
0.0
  0
LINE
  8
BARS
 62
     8
 10
63.901074
 20
42.354636
 30
0.0
 11
64.289632
 21
42.664303
 31
0.0
  0
LINE
  8
BARS
 62
     8
 10
64.367835
 20
42.726628
 30
0.0
 11
64.756393
 21
43.036295
 31
0.0
  0
LINE
  8
BARS
 62
     8
 10
64.526747
 20
42.533593
 30
0.0
 11
64.915305
 21
42.84326
 31
0.0
  0
LINE
  8
BARS
 62
     8
 10
63.592345
 20
41.788907
 30
0.0
 11
63.981784
 21
42.099276
 31
0.0
  0
LINE
  8
BARS
 62
     8
 10
63.434313
 20
41.982644
 30
0.0
 11
63.822871
 21
42.292311
 31
0.0
  0
POLYLINE
  8
BARS
 62
     7
 66
     1
 10
0.0
 20
0.0
 30
0.0
  0
VERTEX
  8
BARS
 62
     7
 10
65.418208
 20
42.60469
 30
0.0
 42
0.051645
 70
     2
 50
335.11867
  0
VERTEX
  8
BARS
 62
     7
 10
65.528345
 20
42.59117
 30
0.0
 42
0.174705
 50
335.11867
  0
VERTEX
  8
BARS
 62
     7
 10
65.656223
 20
42.634539
 30
0.0
 42
0.174705
 50
38.553619
  0
SEQEND
  8
BARS
  0
POLYLINE
  8
BARS
 62
     7
 66
     1
 10
0.0
 20
0.0
 30
0.0
  0
VERTEX
  8
BARS
 62
     7
 10
65.656223
 20
42.634539
 30
0.0
 42
0.174705
 50
38.553619
  0
VERTEX
  8
BARS
 62
     7
 10
65.727032
 20
42.749517
 30
0.0
 42
0.104203
 50
38.553619
  0
VERTEX
  8
BARS
 62
     7
 10
65.726681
 20
42.971589
 30
0.0
 42
0.064948
 70
     2
 50
101.988568
  0
VERTEX
  8
BARS
 62
     7
 10
65.636808
 20
43.226503
 30
0.0
 42
0.063643
 50
101.988568
  0
VERTEX
  8
BARS
 62
     7
 10
65.482048
 20
43.454775
 30
0.0
 42
0.051099
 50
38.553619
  0
VERTEX
  8
BARS
 62
     7
 10
65.268697
 20
43.672611
 30
0.0
 42
0.064948
 50
38.553619
  0
VERTEX
  8
BARS
 62
     7
 10
65.065628
 20
43.801052
 30
0.0
 42
0.104203
 70
     2
 50
155.11867
  0
VERTEX
  8
BARS
 62
     7
 10
64.849232
 20
43.850946
 30
0.0
 42
0.174705
 50
155.11867
  0
VERTEX
  8
BARS
 62
     7
 10
64.721353
 20
43.807577
 30
0.0
 42
0.174705
 50
38.553619
  0
VERTEX
  8
BARS
 62
     7
 10
64.650544
 20
43.692599
 30
0.0
 42
0.051645
 50
38.553619
  0
VERTEX
  8
BARS
 62
     7
 10
64.639149
 20
43.582222
 30
0.0
 42
0.064948
 70
     2
 50
281.988568
  0
SEQEND
  8
BARS
  0
ARC
  8
BARS
 62
     7
 10
64.630627
 20
43.728877
 30
0.0
 40
0.12
 50
308.553619
 51
38.553619
  0
ARC
  8
BARS
 62
     7
 10
65.559264
 20
42.563659
 30
0.0
 40
0.12
 50
38.553619
 51
128.553619
  0
LINE
  8
BARS
 62
     7
 10
64.72447
 20
43.803667
 30
0.0
 11
64.721353
 21
43.807577
 31
0.0
  0
LINE
  8
BARS
 62
     7
 10
65.656223
 20
42.634539
 30
0.0
 11
65.653107
 21
42.638449
 31
0.0
  0
POLYLINE
  8
BARS
 62
     7
 66
     1
 10
0.0
 20
0.0
 30
0.0
  0
VERTEX
  8
BARS
 62
     7
 10
65.890238
 20
42.501357
 30
0.0
 42
0.174705
 50
38.553619
  0
VERTEX
  8
BARS
 62
     7
 10
65.984649
 20
42.654661
 30
0.0
 42
0.104203
 50
38.553619
  0
VERTEX
  8
BARS
 62
     7
 10
65.984181
 20
42.950758
 30
0.0
 42
0.064948
 70
     2
 50
101.988568
  0
VERTEX
  8
BARS
 62
     7
 10
65.864351
 20
43.290642
 30
0.0
 42
0.063643
 50
101.988568
  0
VERTEX
  8
BARS
 62
     7
 10
65.658004
 20
43.595006
 30
0.0
 42
0.051099
 50
38.553619
  0
VERTEX
  8
BARS
 62
     7
 10
65.373536
 20
43.885453
 30
0.0
 42
0.064948
 50
38.553619
  0
VERTEX
  8
BARS
 62
     7
 10
65.102777
 20
44.056709
 30
0.0
 42
0.104203
 70
     2
 50
155.11867
  0
VERTEX
  8
BARS
 62
     7
 10
64.814249
 20
44.123233
 30
0.0
 42
0.174705
 50
155.11867
  0
VERTEX
  8
BARS
 62
     7
 10
64.643744
 20
44.065408
 30
0.0
 42
0.174705
 50
38.553619
  0
SEQEND
  8
BARS
  0
POLYLINE
  8
BARS
 62
     7
 66
     1
 10
0.0
 20
0.0
 30
0.0
  0
VERTEX
  8
BARS
 62
     7
 10
65.272598
 20
42.488644
 30
0.0
 42
0.018218
 50
38.553619
  0
VERTEX
  8
BARS
 62
     7
 10
65.353003
 20
42.447731
 30
0.0
 42
0.104203
 70
     2
 50
335.11867
  0
VERTEX
  8
BARS
 62
     7
 10
65.64153
 20
42.381207
 30
0.0
 42
0.174705
 50
335.11867
  0
VERTEX
  8
BARS
 62
     7
 10
65.812035
 20
42.439032
 30
0.0
 42
0.174705
 50
38.553619
  0
SEQEND
  8
BARS
  0
POLYLINE
  8
BARS
 62
     7
 66
     1
 10
0.0
 20
0.0
 30
0.0
  0
VERTEX
  8
BARS
 62
     7
 10
65.812035
 20
42.439032
 30
0.0
 42
0.174705
 50
38.553619
  0
VERTEX
  8
BARS
 62
     7
 10
65.906447
 20
42.592336
 30
0.0
 42
0.104203
 50
38.553619
  0
VERTEX
  8
BARS
 62
     7
 10
65.905978
 20
42.888433
 30
0.0
 42
0.064948
 70
     2
 50
101.988568
  0
VERTEX
  8
BARS
 62
     7
 10
65.786148
 20
43.228318
 30
0.0
 42
0.063643
 50
101.988568
  0
VERTEX
  8
BARS
 62
     7
 10
65.579801
 20
43.532681
 30
0.0
 42
0.051099
 50
38.553619
  0
VERTEX
  8
BARS
 62
     7
 10
65.295333
 20
43.823129
 30
0.0
 42
0.064948
 50
38.553619
  0
VERTEX
  8
BARS
 62
     7
 10
65.024574
 20
43.994384
 30
0.0
 42
0.104203
 70
     2
 50
155.11867
  0
VERTEX
  8
BARS
 62
     7
 10
64.736046
 20
44.060908
 30
0.0
 42
0.174705
 50
155.11867
  0
VERTEX
  8
BARS
 62
     7
 10
64.565542
 20
44.003083
 30
0.0
 42
0.174705
 50
38.553619
  0
VERTEX
  8
BARS
 62
     7
 10
64.47113
 20
43.849779
 30
0.0
 42
0.104203
 50
38.553619
  0
VERTEX
  8
BARS
 62
     7
 10
64.471599
 20
43.553682
 30
0.0
 42
0.018218
 70
     2
 50
281.988568
  0
VERTEX
  8
BARS
 62
     7
 10
64.49354
 20
43.466176
 30
0.0
 42
0.051099
 50
281.988568
  0
SEQEND
  8
BARS
  0
POLYLINE
  8
BARS
 62
     7
 66
     1
 10
0.0
 20
0.0
 30
0.0
  0
VERTEX
  8
BARS
 62
     7
 10
63.70536
 20
41.041407
 30
0.0
 42
0.174705
 50
38.553619
  0
VERTEX
  8
BARS
 62
     7
 10
63.779001
 20
41.160984
 30
0.0
 42
0.104203
 50
38.553619
  0
VERTEX
  8
BARS
 62
     7
 10
63.778636
 20
41.39194
 30
0.0
 42
0.064948
 70
     2
 50
101.988568
  0
VERTEX
  8
BARS
 62
     7
 10
63.685168
 20
41.65705
 30
0.0
 42
0.063643
 50
101.988568
  0
VERTEX
  8
BARS
 62
     7
 10
63.524218
 20
41.894453
 30
0.0
 42
0.051099
 50
38.553619
  0
VERTEX
  8
BARS
 62
     7
 10
63.302333
 20
42.121002
 30
0.0
 42
0.064948
 50
38.553619
  0
VERTEX
  8
BARS
 62
     7
 10
63.091141
 20
42.254581
 30
0.0
 42
0.104203
 70
     2
 50
155.11867
  0
VERTEX
  8
BARS
 62
     7
 10
62.866089
 20
42.30647
 30
0.0
 42
0.174705
 50
155.11867
  0
VERTEX
  8
BARS
 62
     7
 10
62.733095
 20
42.261366
 30
0.0
 42
0.174705
 50
38.553619
  0
SEQEND
  8
BARS
  0
POLYLINE
  8
BARS
 62
     7
 66
     1
 10
0.0
 20
0.0
 30
0.0
  0
VERTEX
  8
BARS
 62
     7
 10
63.349342
 20
40.955877
 30
0.0
 42
0.065655
 70
     2
 50
335.11867
  0
VERTEX
  8
BARS
 62
     7
 10
63.494164
 20
40.933979
 30
0.0
 42
0.174705
 50
335.11867
  0
VERTEX
  8
BARS
 62
     7
 10
63.627158
 20
40.979082
 30
0.0
 42
0.174705
 50
38.553619
  0
SEQEND
  8
BARS
  0
POLYLINE
  8
BARS
 62
     7
 66
     1
 10
0.0
 20
0.0
 30
0.0
  0
VERTEX
  8
BARS
 62
     7
 10
63.627158
 20
40.979082
 30
0.0
 42
0.174705
 50
38.553619
  0
VERTEX
  8
BARS
 62
     7
 10
63.700799
 20
41.098659
 30
0.0
 42
0.104203
 50
38.553619
  0
VERTEX
  8
BARS
 62
     7
 10
63.700433
 20
41.329615
 30
0.0
 42
0.064948
 70
     2
 50
101.988568
  0
VERTEX
  8
BARS
 62
     7
 10
63.606966
 20
41.594725
 30
0.0
 42
0.063643
 50
101.988568
  0
VERTEX
  8
BARS
 62
     7
 10
63.446015
 20
41.832128
 30
0.0
 42
0.051099
 50
38.553619
  0
VERTEX
  8
BARS
 62
     7
 10
63.22413
 20
42.058677
 30
0.0
 42
0.064948
 50
38.553619
  0
VERTEX
  8
BARS
 62
     7
 10
63.012938
 20
42.192257
 30
0.0
 42
0.104203
 70
     2
 50
155.11867
  0
VERTEX
  8
BARS
 62
     7
 10
62.787886
 20
42.244146
 30
0.0
 42
0.174705
 50
155.11867
  0
VERTEX
  8
BARS
 62
     7
 10
62.654893
 20
42.199042
 30
0.0
 42
0.174705
 50
38.553619
  0
VERTEX
  8
BARS
 62
     7
 10
62.581252
 20
42.079465
 30
0.0
 42
0.065655
 50
38.553619
  0
VERTEX
  8
BARS
 62
     7
 10
62.570284
 20
41.933408
 30
0.0
 42
0.064948
 70
     2
 50
281.988568
  0
SEQEND
  8
BARS
  0
POLYLINE
  8
BARS
 62
     7
 66
     1
 10
0.0
 20
0.0
 30
0.0
  0
VERTEX
  8
BARS
 62
     7
 10
63.452352
 20
41.037972
 30
0.0
 42
0.171711
 50
38.553619
  0
VERTEX
  8
BARS
 62
     7
 10
63.513537
 20
41.136042
 30
0.0
 42
0.104726
 50
38.553619
  0
VERTEX
  8
BARS
 62
     7
 10
63.515214
 20
41.322152
 30
0.0
 42
0.066151
 70
     2
 50
101.441173
  0
VERTEX
  8
BARS
 62
     7
 10
63.441627
 20
41.535735
 30
0.0
 42
0.065028
 50
101.441173
  0
VERTEX
  8
BARS
 62
     7
 10
63.313071
 20
41.726176
 30
0.0
 42
0.052293
 50
38.553619
  0
VERTEX
  8
BARS
 62
     7
 10
63.134994
 20
41.907133
 30
0.0
 42
0.066151
 50
38.553619
  0
VERTEX
  8
BARS
 62
     7
 10
62.964336
 20
42.013372
 30
0.0
 42
0.104726
 70
     2
 50
155.666066
  0
VERTEX
  8
BARS
 62
     7
 10
62.782544
 20
42.053264
 30
0.0
 42
0.171711
 50
155.666066
  0
VERTEX
  8
BARS
 62
     7
 10
62.673293
 20
42.015503
 30
0.0
 42
0.171711
 50
38.553619
  0
SEQEND
  8
BARS
  0
POLYLINE
  8
BARS
 62
     7
 66
     1
 10
0.0
 20
0.0
 30
0.0
 70
     1
  0
VERTEX
  8
BARS
 62
     7
 10
62.881473
 20
40.583002
 30
0.0
 42
0.171711
 50
38.553619
  0
VERTEX
  8
BARS
 62
     7
 10
62.942659
 20
40.681072
 30
0.0
 42
0.104726
 50
38.553619
  0
VERTEX
  8
BARS
 62
     7
 10
62.944335
 20
40.867182
 30
0.0
 42
0.066151
 70
     2
 50
101.441173
  0
VERTEX
  8
BARS
 62
     7
 10
62.870749
 20
41.080765
 30
0.0
 42
0.065028
 50
101.441173
  0
VERTEX
  8
BARS
 62
     7
 10
62.742192
 20
41.271206
 30
0.0
 42
0.052293
 50
38.553619
  0
VERTEX
  8
BARS
 62
     7
 10
62.564115
 20
41.452163
 30
0.0
 42
0.066151
 50
38.553619
  0
VERTEX
  8
BARS
 62
     7
 10
62.393458
 20
41.558402
 30
0.0
 42
0.104726
 70
     2
 50
155.666066
  0
VERTEX
  8
BARS
 62
     7
 10
62.211665
 20
41.598294
 30
0.0
 42
0.171711
 50
155.666066
  0
VERTEX
  8
BARS
 62
     7
 10
62.102415
 20
41.560533
 30
0.0
 42
0.171711
 50
38.553619
  0
VERTEX
  8
BARS
 62
     7
 10
62.041229
 20
41.462463
 30
0.0
 42
0.104726
 50
38.553619
  0
VERTEX
  8
BARS
 62
     7
 10
62.039553
 20
41.276352
 30
0.0
 42
0.066151
 70
     2
 50
281.441173
  0
VERTEX
  8
BARS
 62
     7
 10
62.105035
 20
41.086292
 30
0.0
 42
0.052293
 50
281.441173
  0
VERTEX
  8
BARS
 62
     7
 10
62.241696
 20
40.872328
 30
0.0
 42
0.052293
 50
38.553619
  0
VERTEX
  8
BARS
 62
     7
 10
62.419773
 20
40.691372
 30
0.0
 42
0.066151
 50
38.553619
  0
VERTEX
  8
BARS
 62
     7
 10
62.590431
 20
40.585133
 30
0.0
 42
0.104726
 70
     2
 50
335.666066
  0
VERTEX
  8
BARS
 62
     7
 10
62.772223
 20
40.545241
 30
0.0
 42
0.171711
 50
335.666066
  0
SEQEND
  8
BARS
  0
LINE
  8
BARS
 62
     7
 10
63.01091
 20
42.284572
 30
0.0
 11
64.705416
 21
43.635034
 31
0.0
  0
LINE
  8
BARS
 62
     7
 10
63.789969
 20
41.307041
 30
0.0
 11
65.484475
 21
42.657502
 31
0.0
  0
LINE
  8
BARS
 62
     7
 10
62.654893
 20
42.199042
 30
0.0
 11
62.733095
 21
42.261366
 31
0.0
  0
LINE
  8
BARS
 62
     7
 10
63.627158
 20
40.979082
 30
0.0
 11
63.70536
 21
41.041407
 31
0.0
  0
LINE
  8
BARS
 62
     7
 10
64.565542
 20
44.003083
 30
0.0
 11
64.643744
 21
44.065408
 31
0.0
  0
LINE
  8
BARS
 62
     7
 10
65.812035
 20
42.439032
 30
0.0
 11
65.890238
 21
42.501357
 31
0.0
  0
LINE
  8
BARS
 62
     7
 10
64.53156
 20
44.206172
 30
0.0
 11
65.196282
 21
44.735933
 31
0.0
  0
LINE
  8
BARS
 62
     7
 10
66.002422
 20
42.360593
 30
0.0
 11
66.667144
 21
42.890352
 31
0.0
  0
LINE
  8
BARS
 62
     7
 10
62.102415
 20
41.560533
 30
0.0
 11
62.673294
 21
42.015504
 31
0.0
  0
LINE
  8
BARS
 62
     7
 10
62.881473
 20
40.583002
 30
0.0
 11
63.452352
 21
41.037972
 31
0.0
  0
ARC
  8
BARS
 62
     8
 10
64.868021
 20
42.129768
 30
0.0
 40
0.1
 50
201.995329
 51
211.553619
  0
ENDSEC
  0
EOF
