  0
SECTION
  2
HEADER
  9
$ACADVER
  1
AC1009
  9
$INSBASE
 10
0.0
 20
0.0
 30
0.0
  9
$EXTMIN
 10
-0.023722
 20
0.0
 30
0.0
  9
$EXTMAX
 10
9.56905
 20
6.862972
 30
0.001935
  9
$LIMMIN
 10
0.0
 20
0.0
  9
$LIMMAX
 10
12.0
 20
9.0
  9
$ORTHOMODE
 70
     0
  9
$REGENMODE
 70
     1
  9
$FILLMODE
 70
     1
  9
$QTEXTMODE
 70
     0
  9
$MIRRTEXT
 70
     1
  9
$DRAGMODE
 70
     2
  9
$LTSCALE
 40
1.0
  9
$OSMODE
 70
     0
  9
$ATTMODE
 70
     1
  9
$TEXTSIZE
 40
0.2
  9
$TRACEWID
 40
0.05
  9
$TEXTSTYLE
  7
ROMANS
  9
$CLAYER
  8
TITLE
  9
$CELTYPE
  6
BYLAYER
  9
$CECOLOR
 62
   256
  9
$DIMSCALE
 40
1.0
  9
$DIMASZ
 40
0.18
  9
$DIMEXO
 40
0.0625
  9
$DIMDLI
 40
0.38
  9
$DIMRND
 40
0.0
  9
$DIMDLE
 40
0.0
  9
$DIMEXE
 40
0.18
  9
$DIMTP
 40
0.0
  9
$DIMTM
 40
0.0
  9
$DIMTXT
 40
0.18
  9
$DIMCEN
 40
0.09
  9
$DIMTSZ
 40
0.0
  9
$DIMTOL
 70
     0
  9
$DIMLIM
 70
     0
  9
$DIMTIH
 70
     1
  9
$DIMTOH
 70
     1
  9
$DIMSE1
 70
     0
  9
$DIMSE2
 70
     0
  9
$DIMTAD
 70
     0
  9
$DIMZIN
 70
     0
  9
$DIMBLK
  1

  9
$DIMASO
 70
     1
  9
$DIMSHO
 70
     1
  9
$DIMPOST
  1

  9
$DIMAPOST
  1

  9
$DIMALT
 70
     0
  9
$DIMALTD
 70
     2
  9
$DIMALTF
 40
25.4
  9
$DIMLFAC
 40
1.0
  9
$DIMTOFL
 70
     0
  9
$DIMTVP
 40
0.0
  9
$DIMTIX
 70
     0
  9
$DIMSOXD
 70
     0
  9
$DIMSAH
 70
     0
  9
$DIMBLK1
  1

  9
$DIMBLK2
  1

  9
$DIMSTYLE
  2
*UNNAMED
  9
$DIMCLRD
 70
     0
  9
$DIMCLRE
 70
     0
  9
$DIMCLRT
 70
     0
  9
$DIMTFAC
 40
1.0
  9
$DIMGAP
 40
0.09
  9
$LUNITS
 70
     2
  9
$LUPREC
 70
     4
  9
$SKETCHINC
 40
0.1
  9
$FILLETRAD
 40
0.0
  9
$AUNITS
 70
     0
  9
$AUPREC
 70
     0
  9
$MENU
  1
acad
  9
$ELEVATION
 40
0.0
  9
$PELEVATION
 40
0.0
  9
$THICKNESS
 40
0.0
  9
$LIMCHECK
 70
     0
  9
$BLIPMODE
 70
     1
  9
$CHAMFERA
 40
0.0
  9
$CHAMFERB
 40
0.0
  9
$SKPOLY
 70
     0
  9
$TDCREATE
 40
2450434.7862847336
  9
$TDUPDATE
 40
2450507.6572222337
  9
$TDINDWG
 40
0.005601863426
  9
$TDUSRTIMER
 40
0.005601863426
  9
$USRTIMER
 70
     1
  9
$ANGBASE
 50
0.0
  9
$ANGDIR
 70
     0
  9
$PDMODE
 70
     0
  9
$PDSIZE
 40
0.0
  9
$PLINEWID
 40
0.0
  9
$COORDS
 70
     1
  9
$SPLFRAME
 70
     0
  9
$SPLINETYPE
 70
     6
  9
$SPLINESEGS
 70
     8
  9
$ATTDIA
 70
     0
  9
$ATTREQ
 70
     1
  9
$HANDLING
 70
     0
  9
$HANDSEED
  5
0
  9
$SURFTAB1
 70
     6
  9
$SURFTAB2
 70
     6
  9
$SURFTYPE
 70
     6
  9
$SURFU
 70
     6
  9
$SURFV
 70
     6
  9
$UCSNAME
  2

  9
$UCSORG
 10
0.0
 20
0.0
 30
0.0
  9
$UCSXDIR
 10
1.0
 20
0.0
 30
0.0
  9
$UCSYDIR
 10
0.0
 20
1.0
 30
0.0
  9
$PUCSNAME
  2

  9
$PUCSORG
 10
0.0
 20
0.0
 30
0.0
  9
$PUCSXDIR
 10
1.0
 20
0.0
 30
0.0
  9
$PUCSYDIR
 10
0.0
 20
1.0
 30
0.0
  9
$USERI1
 70
     0
  9
$USERI2
 70
     0
  9
$USERI3
 70
     0
  9
$USERI4
 70
     0
  9
$USERI5
 70
     0
  9
$USERR1
 40
0.0
  9
$USERR2
 40
0.0
  9
$USERR3
 40
0.0
  9
$USERR4
 40
0.0
  9
$USERR5
 40
0.0
  9
$WORLDVIEW
 70
     1
  9
$SHADEDGE
 70
     3
  9
$SHADEDIF
 70
    70
  9
$TILEMODE
 70
     1
  9
$MAXACTVP
 70
    16
  9
$PINSBASE
 10
-1.0
 20
0.0
 30
0.0
  9
$PLIMCHECK
 70
     0
  9
$PEXTMIN
 10
1.000000E+020
 20
1.000000E+020
 30
1.000000E+020
  9
$PEXTMAX
 10
-1.000000E+020
 20
-1.000000E+020
 30
-1.000000E+020
  9
$PLIMMIN
 10
0.0
 20
0.0
  9
$PLIMMAX
 10
12.0
 20
9.0
  9
$UNITMODE
 70
     0
  9
$VISRETAIN
 70
     0
  9
$PLINEGEN
 70
     0
  9
$PSLTSCALE
 70
     1
  9
$TREEDEPTH
 70
  3020
  9
$DWGCODEPAGE
  3
iso8859-1
  0
ENDSEC
  0
SECTION
  2
TABLES
  0
TABLE
  2
VPORT
 70
     1
  0
VPORT
  2
*ACTIVE
 70
     0
 10
0.0
 20
0.0
 11
1.0
 21
1.0
 12
3.767195
 22
3.100492
 13
0.0
 23
0.0
 14
1.0
 24
1.0
 15
0.0
 25
0.0
 16
0.0
 26
0.0
 36
1.0
 17
0.0
 27
0.0
 37
0.0
 40
6.491303
 41
1.353008
 42
50.0
 43
0.0
 44
0.0
 50
0.0
 51
0.0
 71
     0
 72
   100
 73
     1
 74
     1
 75
     0
 76
     0
 77
     0
 78
     0
  0
ENDTAB
  0
TABLE
  2
LTYPE
 70
     1
  0
LTYPE
  2
CONTINUOUS
 70
    64
  3
Solid line
 72
    65
 73
     0
 40
0.0
  0
ENDTAB
  0
TABLE
  2
LAYER
 70
     7
  0
LAYER
  2
0
 70
    64
 62
     7
  6
CONTINUOUS
  0
LAYER
  2
1
 70
    64
 62
     7
  6
CONTINUOUS
  0
LAYER
  2
13
 70
    64
 62
     7
  6
CONTINUOUS
  0
LAYER
  2
LEADER
 70
     0
 62
     7
  6
CONTINUOUS
  0
LAYER
  2
LEADER-TEXT
 70
     0
 62
     7
  6
CONTINUOUS
  0
LAYER
  2
TITLE
 70
     0
 62
   251
  6
CONTINUOUS
  0
LAYER
  2
DEFPOINTS
 70
     0
 62
     7
  6
CONTINUOUS
  0
ENDTAB
  0
TABLE
  2
STYLE
 70
     2
  0
STYLE
  2
STANDARD
 70
     0
 40
0.0
 41
1.0
 50
0.0
 71
     0
 42
0.2
  3
txt
  4

  0
STYLE
  2
ROMANS
 70
    64
 40
0.2
 41
1.0
 50
0.0
 71
     0
 42
0.2
  3
romans
  4

  0
ENDTAB
  0
TABLE
  2
VIEW
 70
     0
  0
ENDTAB
  0
TABLE
  2
UCS
 70
     0
  0
ENDTAB
  0
TABLE
  2
APPID
 70
     2
  0
APPID
  2
ACAD
 70
    64
  0
APPID
  2
SOFTSOURCE
 70
     0
  0
ENDTAB
  0
TABLE
  2
DIMSTYLE
 70
     0
  0
ENDTAB
  0
ENDSEC
  0
SECTION
  2
BLOCKS
  0
BLOCK
  8
0
  2
SOLARR
 70
    64
 10
17.982142
 20
8.531263
 30
0.0
  0
SOLID
  8
13
 10
17.982142
 20
8.531263
 30
0.0
 11
7.930517
 21
10.688138
 31
0.0
 12
7.931392
 22
6.377263
 32
0.0
 13
9.006392
 23
8.534013
 33
0.0
  0
ENDBLK
  8
0
  0
BLOCK
  8
0
  2
UNION
 70
    64
 10
0.0
 20
0.0
 30
0.0
  3
UNION
  0
POLYLINE
  8
1
  6
CONTINUOUS
 62
    92
 66
     1
 10
0.0
 20
0.0
 30
0.0
  0
VERTEX
  8
1
  6
CONTINUOUS
 62
    92
 10
-0.045125
 20
-0.076375
 30
0.0
  0
VERTEX
  8
1
  6
CONTINUOUS
 62
    92
 10
-0.045125
 20
0.075625
 30
0.0
  0
SEQEND
  8
1
  6
CONTINUOUS
 62
    92
  0
POLYLINE
  8
1
  6
CONTINUOUS
 62
    92
 66
     1
 10
0.0
 20
0.0
 30
0.0
  0
VERTEX
  8
1
  6
CONTINUOUS
 62
    92
 10
0.044875
 20
-0.07975
 30
0.0
  0
VERTEX
  8
1
  6
CONTINUOUS
 62
    92
 10
0.044875
 20
0.072125
 30
0.0
  0
SEQEND
  8
1
  6
CONTINUOUS
 62
    92
  0
POLYLINE
  8
1
  6
CONTINUOUS
 62
    92
 66
     1
 10
0.0
 20
0.0
 30
0.0
  0
VERTEX
  8
1
  6
CONTINUOUS
 62
    92
 10
0.0
 20
-0.10525
 30
0.0
  0
VERTEX
  8
1
  6
CONTINUOUS
 62
    92
 10
0.0
 20
0.105375
 30
0.0
  0
SEQEND
  8
1
  6
CONTINUOUS
 62
    92
  0
ENDBLK
  8
0
  0
BLOCK
  8
0
  2
GVLV
 70
    64
 10
0.0
 20
0.0
 30
0.0
  3
GVLV
  0
POLYLINE
  8
1
  6
CONTINUOUS
 62
    92
 66
     1
 10
0.0
 20
0.0
 30
0.0
  0
VERTEX
  8
1
  6
CONTINUOUS
 62
    92
 10
-0.1235
 20
0.07275
 30
0.0
  0
VERTEX
  8
1
  6
CONTINUOUS
 62
    92
 10
0.126
 20
-0.072
 30
0.0
  0
VERTEX
  8
1
  6
CONTINUOUS
 62
    92
 10
0.126
 20
0.074
 30
0.0
  0
VERTEX
  8
1
  6
CONTINUOUS
 62
    92
 10
-0.1235
 20
-0.072
 30
0.0
  0
VERTEX
  8
1
  6
CONTINUOUS
 62
    92
 10
-0.1235
 20
0.07275
 30
0.0
  0
SEQEND
  8
1
  6
CONTINUOUS
 62
    92
  0
ENDBLK
  8
0
  0
BLOCK
  8
0
  2
CBVLV
 70
    64
 10
0.0
 20
0.0
 30
0.0
  3
CBVLV
  0
POLYLINE
  8
1
  6
CONTINUOUS
 62
    92
 66
     1
 10
0.0
 20
0.0
 30
0.0
  0
VERTEX
  8
1
  6
CONTINUOUS
 62
    92
 10
0.12575
 20
-0.07725
 30
0.0
  0
VERTEX
  8
1
  6
CONTINUOUS
 62
    92
 10
0.12575
 20
0.085875
 30
0.0
  0
SEQEND
  8
1
  6
CONTINUOUS
 62
    92
  0
POLYLINE
  8
1
  6
CONTINUOUS
 62
    92
 66
     1
 10
0.0
 20
0.0
 30
0.0
  0
VERTEX
  8
1
  6
CONTINUOUS
 62
    92
 10
-0.1225
 20
-0.082625
 30
0.0
  0
VERTEX
  8
1
  6
CONTINUOUS
 62
    92
 10
-0.1225
 20
0.089625
 30
0.0
  0
SEQEND
  8
1
  6
CONTINUOUS
 62
    92
  0
3DFACE
  8
1
  6
CONTINUOUS
 62
    92
 10
0.002
 20
-0.101
 30
0.0
 11
-0.103875
 21
0.005125
 31
0.0
 12
0.002
 22
0.111
 32
0.0
 13
0.108125
 23
0.005125
 33
0.0
  0
POLYLINE
  8
1
  6
CONTINUOUS
 62
    92
 66
     1
 10
0.0
 20
0.0
 30
0.0
  0
VERTEX
  8
1
  6
CONTINUOUS
 62
    92
 10
0.002
 20
0.111
 30
0.0
  0
VERTEX
  8
1
  6
CONTINUOUS
 62
    92
 10
0.002
 20
-0.101
 30
0.0
  0
SEQEND
  8
1
  6
CONTINUOUS
 62
    92
  0
ENDBLK
  8
0
  0
ENDSEC
  0
SECTION
  2
ENTITIES
  0
POLYLINE
  8
1
  6
CONTINUOUS
 62
     2
 66
     1
 10
0.0
 20
0.0
 30
0.0
  0
VERTEX
  8
1
  6
CONTINUOUS
 62
     2
 10
3.910007
 20
3.019146
 30
0.0
  0
VERTEX
  8
1
  6
CONTINUOUS
 62
     2
 10
5.078882
 20
3.019146
 30
0.0
  0
SEQEND
  8
1
  6
CONTINUOUS
 62
     2
  0
POLYLINE
  8
1
  6
CONTINUOUS
 62
     2
 66
     1
 10
0.0
 20
0.0
 30
0.0
  0
VERTEX
  8
1
  6
CONTINUOUS
 62
     2
 10
5.078882
 20
3.577479
 30
0.0
  0
VERTEX
  8
1
  6
CONTINUOUS
 62
     2
 10
0.377841
 20
3.577479
 30
0.0
  0
SEQEND
  8
1
  6
CONTINUOUS
 62
     2
  0
LINE
  8
1
  6
CONTINUOUS
 62
   215
 10
0.377841
 20
3.484375
 30
0.0
 11
5.078622
 21
3.484375
 31
0.0
  0
POLYLINE
  8
1
  6
CONTINUOUS
 62
     2
 66
     1
 10
0.0
 20
0.0
 30
0.0
  0
VERTEX
  8
1
  6
CONTINUOUS
 62
     2
 10
2.230445
 20
3.019146
 30
0.0
  0
VERTEX
  8
1
  6
CONTINUOUS
 62
     2
 10
0.377841
 20
3.019146
 30
0.0
  0
SEQEND
  8
1
  6
CONTINUOUS
 62
     2
  0
POLYLINE
  8
1
  6
CONTINUOUS
 62
    92
 66
     1
 10
0.0
 20
0.0
 30
0.0
  0
VERTEX
  8
1
  6
CONTINUOUS
 62
    92
 10
3.912091
 20
1.838542
 30
0.0
  0
VERTEX
  8
1
  6
CONTINUOUS
 62
    92
 10
2.23058
 20
1.838542
 30
0.0
  0
SEQEND
  8
1
  6
CONTINUOUS
 62
    92
  0
POLYLINE
  8
1
  6
CONTINUOUS
 62
    92
 66
     1
 10
0.0
 20
0.0
 30
0.0
  0
VERTEX
  8
1
  6
CONTINUOUS
 62
    92
 10
2.23058
 20
1.838542
 30
0.0
  0
VERTEX
  8
1
  6
CONTINUOUS
 62
    92
 10
2.23058
 20
3.482812
 30
0.0
  0
SEQEND
  8
1
  6
CONTINUOUS
 62
    92
  0
LINE
  8
1
  6
CONTINUOUS
 62
   215
 10
2.23058
 20
3.769531
 30
0.0
 11
2.23058
 21
3.769792
 31
0.0
  0
LINE
  8
1
  6
CONTINUOUS
 62
   215
 10
3.912091
 20
3.769792
 30
0.0
 11
3.912091
 21
3.769531
 31
0.0
  0
POLYLINE
  8
1
  6
CONTINUOUS
 62
    92
 66
     1
 10
0.0
 20
0.0
 30
0.0
  0
VERTEX
  8
1
  6
CONTINUOUS
 62
    92
 10
3.912091
 20
3.482812
 30
0.0
  0
VERTEX
  8
1
  6
CONTINUOUS
 62
    92
 10
3.912091
 20
1.838542
 30
0.0
  0
SEQEND
  8
1
  6
CONTINUOUS
 62
    92
  0
POLYLINE
  8
1
  6
CONTINUOUS
 62
    92
 66
     1
 10
0.0
 20
0.0
 30
0.0
  0
VERTEX
  8
1
  6
CONTINUOUS
 62
    92
 10
3.864434
 20
3.378125
 30
0.0
  0
VERTEX
  8
1
  6
CONTINUOUS
 62
    92
 10
3.864434
 20
1.838542
 30
0.0
  0
SEQEND
  8
1
  6
CONTINUOUS
 62
    92
  0
POLYLINE
  8
1
  6
CONTINUOUS
 62
    92
 66
     1
 10
0.0
 20
0.0
 30
0.0
  0
VERTEX
  8
1
  6
CONTINUOUS
 62
    92
 10
2.276018
 20
3.396229
 30
0.0
  0
VERTEX
  8
1
  6
CONTINUOUS
 62
    92
 10
2.276018
 20
1.838542
 30
0.0
  0
SEQEND
  8
1
  6
CONTINUOUS
 62
    92
  0
POLYLINE
  8
1
  6
CONTINUOUS
 62
    92
 66
     1
 10
0.0
 20
0.0
 30
0.0
  0
VERTEX
  8
1
  6
CONTINUOUS
 62
    92
 10
2.871726
 20
3.334114
 30
0.0
  0
VERTEX
  8
1
  6
CONTINUOUS
 62
    92
 10
3.277195
 20
3.334114
 30
0.0
  0
SEQEND
  8
1
  6
CONTINUOUS
 62
    92
  0
POLYLINE
  8
1
  6
CONTINUOUS
 62
    92
 66
     1
 10
0.0
 20
0.0
 30
0.0
  0
VERTEX
  8
1
  6
CONTINUOUS
 62
    92
 10
3.329278
 20
3.282031
 30
0.0
  0
VERTEX
  8
1
  6
CONTINUOUS
 62
    92
 10
3.329278
 20
3.052604
 30
0.0
  0
SEQEND
  8
1
  6
CONTINUOUS
 62
    92
  0
POLYLINE
  8
1
  6
CONTINUOUS
 62
    92
 66
     1
 10
0.0
 20
0.0
 30
0.0
  0
VERTEX
  8
1
  6
CONTINUOUS
 62
    92
 10
3.277195
 20
3.000521
 30
0.0
  0
VERTEX
  8
1
  6
CONTINUOUS
 62
    92
 10
2.871726
 20
3.000521
 30
0.0
  0
SEQEND
  8
1
  6
CONTINUOUS
 62
    92
  0
POLYLINE
  8
1
  6
CONTINUOUS
 62
    92
 66
     1
 10
0.0
 20
0.0
 30
0.0
  0
VERTEX
  8
1
  6
CONTINUOUS
 62
    92
 10
2.819643
 20
3.052604
 30
0.0
  0
VERTEX
  8
1
  6
CONTINUOUS
 62
    92
 10
2.819643
 20
3.282031
 30
0.0
  0
SEQEND
  8
1
  6
CONTINUOUS
 62
    92
  0
POLYLINE
  8
1
  6
CONTINUOUS
 62
    92
 66
     1
 10
0.0
 20
0.0
 30
0.0
  0
VERTEX
  8
1
  6
CONTINUOUS
 62
    92
 10
2.882143
 20
3.334114
 30
0.0
  0
VERTEX
  8
1
  6
CONTINUOUS
 62
    92
 10
2.874851
 20
3.334114
 30
0.0
  0
SEQEND
  8
1
  6
CONTINUOUS
 62
    92
  0
POLYLINE
  8
1
  6
CONTINUOUS
 62
   252
 66
     1
 10
0.0
 20
0.0
 30
0.0
  0
VERTEX
  8
1
  6
CONTINUOUS
 62
   252
 10
3.044122
 20
3.001042
 30
0.0
  0
VERTEX
  8
1
  6
CONTINUOUS
 62
   252
 10
3.044122
 20
2.91276
 30
0.0
  0
SEQEND
  8
1
  6
CONTINUOUS
 62
   252
  0
POLYLINE
  8
1
  6
CONTINUOUS
 62
   252
 66
     1
 10
0.0
 20
0.0
 30
0.0
  0
VERTEX
  8
1
  6
CONTINUOUS
 62
   252
 10
3.122893
 20
2.91276
 30
0.0
  0
VERTEX
  8
1
  6
CONTINUOUS
 62
   252
 10
3.122893
 20
3.001042
 30
0.0
  0
SEQEND
  8
1
  6
CONTINUOUS
 62
   252
  0
POLYLINE
  8
1
  6
CONTINUOUS
 62
    92
 66
     1
 10
0.0
 20
0.0
 30
0.0
  0
VERTEX
  8
1
  6
CONTINUOUS
 62
    92
 10
3.177841
 20
2.91276
 30
0.0
  0
VERTEX
  8
1
  6
CONTINUOUS
 62
    92
 10
2.989299
 20
2.91276
 30
0.0
  0
SEQEND
  8
1
  6
CONTINUOUS
 62
    92
  0
POLYLINE
  8
1
  6
CONTINUOUS
 62
    92
 66
     1
 10
0.0
 20
0.0
 30
0.0
  0
VERTEX
  8
1
  6
CONTINUOUS
 62
    92
 10
2.989299
 20
2.91276
 30
0.0
  0
VERTEX
  8
1
  6
CONTINUOUS
 62
    92
 10
2.989299
 20
2.836333
 30
0.0
  0
SEQEND
  8
1
  6
CONTINUOUS
 62
    92
  0
POLYLINE
  8
1
  6
CONTINUOUS
 62
    92
 66
     1
 10
0.0
 20
0.0
 30
0.0
  0
VERTEX
  8
1
  6
CONTINUOUS
 62
    92
 10
2.989299
 20
2.836333
 30
0.0
  0
VERTEX
  8
1
  6
CONTINUOUS
 62
    92
 10
3.177841
 20
2.836333
 30
0.0
  0
SEQEND
  8
1
  6
CONTINUOUS
 62
    92
  0
POLYLINE
  8
1
  6
CONTINUOUS
 62
    92
 66
     1
 10
0.0
 20
0.0
 30
0.0
  0
VERTEX
  8
1
  6
CONTINUOUS
 62
    92
 10
3.177841
 20
2.836333
 30
0.0
  0
VERTEX
  8
1
  6
CONTINUOUS
 62
    92
 10
3.177841
 20
2.91276
 30
0.0
  0
SEQEND
  8
1
  6
CONTINUOUS
 62
    92
  0
POLYLINE
  8
1
  6
CONTINUOUS
 62
    92
 66
     1
 10
0.0
 20
0.0
 30
0.0
  0
VERTEX
  8
1
  6
CONTINUOUS
 62
    92
 10
2.989299
 20
2.891281
 30
0.0
  0
VERTEX
  8
1
  6
CONTINUOUS
 62
    92
 10
2.970809
 20
2.894927
 30
0.0
  0
VERTEX
  8
1
  6
CONTINUOUS
 62
    92
 10
2.922507
 20
2.904562
 30
0.0
  0
VERTEX
  8
1
  6
CONTINUOUS
 62
    92
 10
2.854278
 20
2.917708
 30
0.0
  0
VERTEX
  8
1
  6
CONTINUOUS
 62
    92
 10
2.776018
 20
2.931646
 30
0.0
  0
VERTEX
  8
1
  6
CONTINUOUS
 62
    92
 10
2.697632
 20
2.943489
 30
0.0
  0
VERTEX
  8
1
  6
CONTINUOUS
 62
    92
 10
2.628882
 20
2.950917
 30
0.0
  0
SEQEND
  8
1
  6
CONTINUOUS
 62
    92
  0
POLYLINE
  8
1
  6
CONTINUOUS
 62
    92
 66
     1
 10
0.0
 20
0.0
 30
0.0
  0
VERTEX
  8
1
  6
CONTINUOUS
 62
    92
 10
2.628882
 20
2.950917
 30
0.0
  0
VERTEX
  8
1
  6
CONTINUOUS
 62
    92
 10
2.557528
 20
2.957812
 30
0.0
  0
VERTEX
  8
1
  6
CONTINUOUS
 62
    92
 10
2.490862
 20
2.965239
 30
0.0
  0
VERTEX
  8
1
  6
CONTINUOUS
 62
    92
 10
2.432143
 20
2.968489
 30
0.0
  0
VERTEX
  8
1
  6
CONTINUOUS
 62
    92
 10
2.383966
 20
2.962896
 30
0.0
  0
VERTEX
  8
1
  6
CONTINUOUS
 62
    92
 10
2.349591
 20
2.94375
 30
0.0
  0
SEQEND
  8
1
  6
CONTINUOUS
 62
    92
  0
POLYLINE
  8
1
  6
CONTINUOUS
 62
    92
 66
     1
 10
0.0
 20
0.0
 30
0.0
210
0.0
220
0.0
230
0.9999999999999999
  0
VERTEX
  8
1
  6
CONTINUOUS
 62
    92
 10
2.349591
 20
2.94375
 30
0.0
  0
VERTEX
  8
1
  6
CONTINUOUS
 62
    92
 10
2.328362
 20
2.908989
 30
0.0
  0
VERTEX
  8
1
  6
CONTINUOUS
 62
    92
 10
2.317684
 20
2.864458
 30
0.0
  0
VERTEX
  8
1
  6
CONTINUOUS
 62
    92
 10
2.31808
 20
2.817187
 30
0.0
  0
VERTEX
  8
1
  6
CONTINUOUS
 62
    92
 10
2.327059
 20
2.783208
 30
0.0
  0
SEQEND
  8
1
  6
CONTINUOUS
 62
    92
  0
POLYLINE
  8
1
  6
CONTINUOUS
 62
    92
 66
     1
 10
0.0
 20
0.0
 30
0.0
  0
VERTEX
  8
1
  6
CONTINUOUS
 62
    92
 10
2.636309
 20
2.794927
 30
0.0
  0
VERTEX
  8
1
  6
CONTINUOUS
 62
    92
 10
2.681361
 20
2.805344
 30
0.0
  0
SEQEND
  8
1
  6
CONTINUOUS
 62
    92
  0
POLYLINE
  8
1
  6
CONTINUOUS
 62
    92
 66
     1
 10
0.0
 20
0.0
 30
0.0
210
0.0
220
0.0
230
0.9999999999999999
  0
VERTEX
  8
1
  6
CONTINUOUS
 62
    92
 10
2.681361
 20
2.805344
 30
0.0
  0
VERTEX
  8
1
  6
CONTINUOUS
 62
    92
 10
2.74633
 20
2.816406
 30
0.0
  0
VERTEX
  8
1
  6
CONTINUOUS
 62
    92
 10
2.813778
 20
2.827479
 30
0.0
  0
VERTEX
  8
1
  6
CONTINUOUS
 62
    92
 10
2.877716
 20
2.83776
 30
0.0
  0
VERTEX
  8
1
  6
CONTINUOUS
 62
    92
 10
2.932268
 20
2.846354
 30
0.0
  0
VERTEX
  8
1
  6
CONTINUOUS
 62
    92
 10
2.97133
 20
2.852479
 30
0.0
  0
VERTEX
  8
1
  6
CONTINUOUS
 62
    92
 10
2.989299
 20
2.855469
 30
0.0
  0
SEQEND
  8
1
  6
CONTINUOUS
 62
    92
  0
POLYLINE
  8
1
  6
CONTINUOUS
 62
    92
 66
     1
 10
0.0
 20
0.0
 30
0.0
  0
VERTEX
  8
1
  6
CONTINUOUS
 62
    92
 10
3.177841
 20
2.855469
 30
0.0
  0
VERTEX
  8
1
  6
CONTINUOUS
 62
    92
 10
3.19633
 20
2.851823
 30
0.0
  0
VERTEX
  8
1
  6
CONTINUOUS
 62
    92
 10
3.244643
 20
2.842062
 30
0.0
  0
VERTEX
  8
1
  6
CONTINUOUS
 62
    92
 10
3.312872
 20
2.828906
 30
0.0
  0
VERTEX
  8
1
  6
CONTINUOUS
 62
    92
 10
3.391122
 20
2.815104
 30
0.0
  0
VERTEX
  8
1
  6
CONTINUOUS
 62
    92
 10
3.469507
 20
2.803125
 30
0.0
  0
VERTEX
  8
1
  6
CONTINUOUS
 62
    92
 10
3.489695
 20
2.800917
 30
0.0
  0
SEQEND
  8
1
  6
CONTINUOUS
 62
    92
  0
POLYLINE
  8
1
  6
CONTINUOUS
 62
    92
 66
     1
 10
0.0
 20
0.0
 30
0.0
  0
VERTEX
  8
1
  6
CONTINUOUS
 62
    92
 10
3.786174
 20
2.785417
 30
0.0
  0
VERTEX
  8
1
  6
CONTINUOUS
 62
    92
 10
3.817559
 20
2.802864
 30
0.0
  0
SEQEND
  8
1
  6
CONTINUOUS
 62
    92
  0
POLYLINE
  8
1
  6
CONTINUOUS
 62
    92
 66
     1
 10
0.0
 20
0.0
 30
0.0
  0
VERTEX
  8
1
  6
CONTINUOUS
 62
    92
 10
3.817559
 20
2.802864
 30
0.0
  0
VERTEX
  8
1
  6
CONTINUOUS
 62
    92
 10
3.838778
 20
2.83776
 30
0.0
  0
VERTEX
  8
1
  6
CONTINUOUS
 62
    92
 10
3.84933
 20
2.882292
 30
0.0
  0
VERTEX
  8
1
  6
CONTINUOUS
 62
    92
 10
3.84907
 20
2.929427
 30
0.0
  0
VERTEX
  8
1
  6
CONTINUOUS
 62
    92
 10
3.837736
 20
2.972135
 30
0.0
  0
VERTEX
  8
1
  6
CONTINUOUS
 62
    92
 10
3.81508
 20
3.003385
 30
0.0
  0
SEQEND
  8
1
  6
CONTINUOUS
 62
    92
  0
POLYLINE
  8
1
  6
CONTINUOUS
 62
    92
 66
     1
 10
0.0
 20
0.0
 30
0.0
  0
VERTEX
  8
1
  6
CONTINUOUS
 62
    92
 10
3.81508
 20
3.003385
 30
0.0
  0
VERTEX
  8
1
  6
CONTINUOUS
 62
    92
 10
3.782924
 20
3.013677
 30
0.0
  0
VERTEX
  8
1
  6
CONTINUOUS
 62
    92
 10
3.736309
 20
3.00925
 30
0.0
  0
VERTEX
  8
1
  6
CONTINUOUS
 62
    92
 10
3.679143
 20
2.995052
 30
0.0
  0
VERTEX
  8
1
  6
CONTINUOUS
 62
    92
 10
3.615601
 20
2.975656
 30
0.0
  0
VERTEX
  8
1
  6
CONTINUOUS
 62
    92
 10
3.549851
 20
2.956125
 30
0.0
  0
VERTEX
  8
1
  6
CONTINUOUS
 62
    92
 10
3.485789
 20
2.941406
 30
0.0
  0
SEQEND
  8
1
  6
CONTINUOUS
 62
    92
  0
POLYLINE
  8
1
  6
CONTINUOUS
 62
    92
 66
     1
 10
0.0
 20
0.0
 30
0.0
  0
VERTEX
  8
1
  6
CONTINUOUS
 62
    92
 10
3.485789
 20
2.941406
 30
0.0
  0
VERTEX
  8
1
  6
CONTINUOUS
 62
    92
 10
3.420684
 20
2.930208
 30
0.0
  0
VERTEX
  8
1
  6
CONTINUOUS
 62
    92
 10
3.353236
 20
2.919146
 30
0.0
  0
VERTEX
  8
1
  6
CONTINUOUS
 62
    92
 10
3.289299
 20
2.908989
 30
0.0
  0
VERTEX
  8
1
  6
CONTINUOUS
 62
    92
 10
3.234872
 20
2.900396
 30
0.0
  0
VERTEX
  8
1
  6
CONTINUOUS
 62
    92
 10
3.195684
 20
2.894146
 30
0.0
  0
VERTEX
  8
1
  6
CONTINUOUS
 62
    92
 10
3.177841
 20
2.891281
 30
0.0
  0
SEQEND
  8
1
  6
CONTINUOUS
 62
    92
  0
POLYLINE
  8
1
  6
CONTINUOUS
 62
     2
 66
     1
 10
0.0
 20
0.0
 30
0.0
  0
VERTEX
  8
1
  6
CONTINUOUS
 62
     2
 10
2.819643
 20
3.266021
 30
0.0
  0
VERTEX
  8
1
  6
CONTINUOUS
 62
     2
 10
2.276018
 20
3.035031
 30
0.0
  0
SEQEND
  8
1
  6
CONTINUOUS
 62
     2
  0
POLYLINE
  8
1
  6
CONTINUOUS
 62
     2
 66
     1
 10
0.0
 20
0.0
 30
0.0
  0
VERTEX
  8
1
  6
CONTINUOUS
 62
     2
 10
2.819643
 20
3.096354
 30
0.0
  0
VERTEX
  8
1
  6
CONTINUOUS
 62
     2
 10
2.276018
 20
3.007948
 30
0.0
  0
SEQEND
  8
1
  6
CONTINUOUS
 62
     2
  0
POLYLINE
  8
1
  6
CONTINUOUS
 62
     2
 66
     1
 10
0.0
 20
0.0
 30
0.0
  0
VERTEX
  8
1
  6
CONTINUOUS
 62
     2
 10
3.329278
 20
3.270969
 30
0.0
  0
VERTEX
  8
1
  6
CONTINUOUS
 62
     2
 10
3.864434
 20
3.043489
 30
0.0
  0
SEQEND
  8
1
  6
CONTINUOUS
 62
     2
  0
POLYLINE
  8
1
  6
CONTINUOUS
 62
     2
 66
     1
 10
0.0
 20
0.0
 30
0.0
  0
VERTEX
  8
1
  6
CONTINUOUS
 62
     2
 10
3.329278
 20
3.098177
 30
0.0
  0
VERTEX
  8
1
  6
CONTINUOUS
 62
     2
 10
3.864434
 20
3.011198
 30
0.0
  0
SEQEND
  8
1
  6
CONTINUOUS
 62
     2
  0
POLYLINE
  8
1
  6
CONTINUOUS
 62
     2
 66
     1
 10
0.0
 20
0.0
 30
0.0
  0
VERTEX
  8
1
  6
CONTINUOUS
 62
     2
 10
3.087351
 20
1.865365
 30
0.0
  0
VERTEX
  8
1
  6
CONTINUOUS
 62
     2
 10
3.087351
 20
2.117062
 30
0.0
  0
SEQEND
  8
1
  6
CONTINUOUS
 62
     2
  0
POLYLINE
  8
1
  6
CONTINUOUS
 62
     2
 66
     1
 10
0.0
 20
0.0
 30
0.0
  0
VERTEX
  8
1
  6
CONTINUOUS
 62
     2
 10
3.087351
 20
2.117062
 30
0.0
  0
VERTEX
  8
1
  6
CONTINUOUS
 62
     2
 10
3.160007
 20
2.228781
 30
0.0
  0
SEQEND
  8
1
  6
CONTINUOUS
 62
     2
  0
POLYLINE
  8
1
  6
CONTINUOUS
 62
     2
 66
     1
 10
0.0
 20
0.0
 30
0.0
  0
VERTEX
  8
1
  6
CONTINUOUS
 62
     2
 10
3.160007
 20
2.228781
 30
0.0
  0
VERTEX
  8
1
  6
CONTINUOUS
 62
     2
 10
3.160007
 20
2.374094
 30
0.0
  0
SEQEND
  8
1
  6
CONTINUOUS
 62
     2
  0
POLYLINE
  8
1
  6
CONTINUOUS
 62
     2
 66
     1
 10
0.0
 20
0.0
 30
0.0
  0
VERTEX
  8
1
  6
CONTINUOUS
 62
     2
 10
3.541643
 20
1.86276
 30
0.0
  0
VERTEX
  8
1
  6
CONTINUOUS
 62
     2
 10
3.541643
 20
2.114458
 30
0.0
  0
SEQEND
  8
1
  6
CONTINUOUS
 62
     2
  0
POLYLINE
  8
1
  6
CONTINUOUS
 62
     2
 66
     1
 10
0.0
 20
0.0
 30
0.0
  0
VERTEX
  8
1
  6
CONTINUOUS
 62
     2
 10
3.541643
 20
2.114458
 30
0.0
  0
VERTEX
  8
1
  6
CONTINUOUS
 62
     2
 10
3.614299
 20
2.226177
 30
0.0
  0
SEQEND
  8
1
  6
CONTINUOUS
 62
     2
  0
POLYLINE
  8
1
  6
CONTINUOUS
 62
     2
 66
     1
 10
0.0
 20
0.0
 30
0.0
  0
VERTEX
  8
1
  6
CONTINUOUS
 62
     2
 10
3.614299
 20
2.226177
 30
0.0
  0
VERTEX
  8
1
  6
CONTINUOUS
 62
     2
 10
3.614299
 20
2.371489
 30
0.0
  0
SEQEND
  8
1
  6
CONTINUOUS
 62
     2
  0
POLYLINE
  8
1
  6
CONTINUOUS
 62
     2
 66
     1
 10
0.0
 20
0.0
 30
0.0
  0
VERTEX
  8
1
  6
CONTINUOUS
 62
     2
 10
3.39633
 20
1.865365
 30
0.0
  0
VERTEX
  8
1
  6
CONTINUOUS
 62
     2
 10
3.39633
 20
2.117062
 30
0.0
  0
SEQEND
  8
1
  6
CONTINUOUS
 62
     2
  0
POLYLINE
  8
1
  6
CONTINUOUS
 62
     2
 66
     1
 10
0.0
 20
0.0
 30
0.0
  0
VERTEX
  8
1
  6
CONTINUOUS
 62
     2
 10
3.39633
 20
2.117062
 30
0.0
  0
VERTEX
  8
1
  6
CONTINUOUS
 62
     2
 10
3.323549
 20
2.228781
 30
0.0
  0
SEQEND
  8
1
  6
CONTINUOUS
 62
     2
  0
POLYLINE
  8
1
  6
CONTINUOUS
 62
     2
 66
     1
 10
0.0
 20
0.0
 30
0.0
  0
VERTEX
  8
1
  6
CONTINUOUS
 62
     2
 10
3.323549
 20
2.228781
 30
0.0
  0
VERTEX
  8
1
  6
CONTINUOUS
 62
     2
 10
3.323549
 20
2.374094
 30
0.0
  0
SEQEND
  8
1
  6
CONTINUOUS
 62
     2
  0
POLYLINE
  8
1
  6
CONTINUOUS
 62
     2
 66
     1
 10
0.0
 20
0.0
 30
0.0
  0
VERTEX
  8
1
  6
CONTINUOUS
 62
     2
 10
3.84282
 20
1.86276
 30
0.0
  0
VERTEX
  8
1
  6
CONTINUOUS
 62
     2
 10
3.84282
 20
2.114458
 30
0.0
  0
SEQEND
  8
1
  6
CONTINUOUS
 62
     2
  0
POLYLINE
  8
1
  6
CONTINUOUS
 62
     2
 66
     1
 10
0.0
 20
0.0
 30
0.0
  0
VERTEX
  8
1
  6
CONTINUOUS
 62
     2
 10
3.84282
 20
2.114458
 30
0.0
  0
VERTEX
  8
1
  6
CONTINUOUS
 62
     2
 10
3.770164
 20
2.226177
 30
0.0
  0
SEQEND
  8
1
  6
CONTINUOUS
 62
     2
  0
POLYLINE
  8
1
  6
CONTINUOUS
 62
     2
 66
     1
 10
0.0
 20
0.0
 30
0.0
  0
VERTEX
  8
1
  6
CONTINUOUS
 62
     2
 10
3.770164
 20
2.226177
 30
0.0
  0
VERTEX
  8
1
  6
CONTINUOUS
 62
     2
 10
3.770164
 20
2.371489
 30
0.0
  0
SEQEND
  8
1
  6
CONTINUOUS
 62
     2
  0
POLYLINE
  8
1
  6
CONTINUOUS
 62
    92
 66
     1
 10
0.0
 20
0.0
 30
0.0
  0
VERTEX
  8
1
  6
CONTINUOUS
 62
    92
 10
3.252059
 20
2.317187
 30
0.0
  0
VERTEX
  8
1
  6
CONTINUOUS
 62
    92
 10
3.306622
 20
2.382167
 30
0.0
  0
SEQEND
  8
1
  6
CONTINUOUS
 62
    92
  0
POLYLINE
  8
1
  6
CONTINUOUS
 62
    92
 66
     1
 10
0.0
 20
0.0
 30
0.0
  0
VERTEX
  8
1
  6
CONTINUOUS
 62
    92
 10
3.175757
 20
2.225396
 30
0.0
  0
VERTEX
  8
1
  6
CONTINUOUS
 62
    92
 10
3.23032
 20
2.290239
 30
0.0
  0
SEQEND
  8
1
  6
CONTINUOUS
 62
    92
  0
POLYLINE
  8
1
  6
CONTINUOUS
 62
    92
 66
     1
 10
0.0
 20
0.0
 30
0.0
  0
VERTEX
  8
1
  6
CONTINUOUS
 62
    92
 10
3.478757
 20
2.317187
 30
0.0
  0
VERTEX
  8
1
  6
CONTINUOUS
 62
    92
 10
3.533184
 20
2.382167
 30
0.0
  0
SEQEND
  8
1
  6
CONTINUOUS
 62
    92
  0
POLYLINE
  8
1
  6
CONTINUOUS
 62
    92
 66
     1
 10
0.0
 20
0.0
 30
0.0
  0
VERTEX
  8
1
  6
CONTINUOUS
 62
    92
 10
3.40232
 20
2.225396
 30
0.0
  0
VERTEX
  8
1
  6
CONTINUOUS
 62
    92
 10
3.456882
 20
2.290239
 30
0.0
  0
SEQEND
  8
1
  6
CONTINUOUS
 62
    92
  0
POLYLINE
  8
1
  6
CONTINUOUS
 62
    92
 66
     1
 10
0.0
 20
0.0
 30
0.0
  0
VERTEX
  8
1
  6
CONTINUOUS
 62
    92
 10
3.704143
 20
2.317187
 30
0.0
  0
VERTEX
  8
1
  6
CONTINUOUS
 62
    92
 10
3.75857
 20
2.382167
 30
0.0
  0
SEQEND
  8
1
  6
CONTINUOUS
 62
    92
  0
POLYLINE
  8
1
  6
CONTINUOUS
 62
    92
 66
     1
 10
0.0
 20
0.0
 30
0.0
  0
VERTEX
  8
1
  6
CONTINUOUS
 62
    92
 10
3.627841
 20
2.225396
 30
0.0
  0
VERTEX
  8
1
  6
CONTINUOUS
 62
    92
 10
3.682268
 20
2.290239
 30
0.0
  0
SEQEND
  8
1
  6
CONTINUOUS
 62
    92
  0
POLYLINE
  8
1
  6
CONTINUOUS
 62
    92
 66
     1
 10
0.0
 20
0.0
 30
0.0
  0
VERTEX
  8
1
  6
CONTINUOUS
 62
    92
 10
2.365737
 20
2.434896
 30
0.0
  0
VERTEX
  8
1
  6
CONTINUOUS
 62
    92
 10
2.398934
 20
2.434896
 30
0.0
  0
SEQEND
  8
1
  6
CONTINUOUS
 62
    92
  0
POLYLINE
  8
1
  6
CONTINUOUS
 62
    92
 66
     1
 10
0.0
 20
0.0
 30
0.0
  0
VERTEX
  8
1
  6
CONTINUOUS
 62
    92
 10
2.435914
 20
2.434896
 30
0.0
  0
VERTEX
  8
1
  6
CONTINUOUS
 62
    92
 10
2.64008
 20
2.434896
 30
0.0
  0
SEQEND
  8
1
  6
CONTINUOUS
 62
    92
  0
POLYLINE
  8
1
  6
CONTINUOUS
 62
    92
 66
     1
 10
0.0
 20
0.0
 30
0.0
  0
VERTEX
  8
1
  6
CONTINUOUS
 62
    92
 10
2.676934
 20
2.434896
 30
0.0
  0
VERTEX
  8
1
  6
CONTINUOUS
 62
    92
 10
2.883966
 20
2.434896
 30
0.0
  0
SEQEND
  8
1
  6
CONTINUOUS
 62
    92
  0
POLYLINE
  8
1
  6
CONTINUOUS
 62
    92
 66
     1
 10
0.0
 20
0.0
 30
0.0
  0
VERTEX
  8
1
  6
CONTINUOUS
 62
    92
 10
2.920945
 20
2.434896
 30
0.0
  0
VERTEX
  8
1
  6
CONTINUOUS
 62
    92
 10
3.084611
 20
2.434896
 30
0.0
  0
SEQEND
  8
1
  6
CONTINUOUS
 62
    92
  0
POLYLINE
  8
1
  6
CONTINUOUS
 62
    92
 66
     1
 10
0.0
 20
0.0
 30
0.0
  0
VERTEX
  8
1
  6
CONTINUOUS
 62
    92
 10
2.365737
 20
2.434896
 30
0.0
  0
VERTEX
  8
1
  6
CONTINUOUS
 62
    92
 10
2.365737
 20
2.492969
 30
0.0
  0
SEQEND
  8
1
  6
CONTINUOUS
 62
    92
  0
POLYLINE
  8
1
  6
CONTINUOUS
 62
    92
 66
     1
 10
0.0
 20
0.0
 30
0.0
  0
VERTEX
  8
1
  6
CONTINUOUS
 62
    92
 10
2.365737
 20
2.492969
 30
0.0
  0
VERTEX
  8
1
  6
CONTINUOUS
 62
    92
 10
3.086174
 20
2.492969
 30
0.0
  0
SEQEND
  8
1
  6
CONTINUOUS
 62
    92
  0
POLYLINE
  8
1
  6
CONTINUOUS
 62
    92
 66
     1
 10
0.0
 20
0.0
 30
0.0
  0
VERTEX
  8
1
  6
CONTINUOUS
 62
    92
 10
2.432528
 20
2.295573
 30
0.0
  0
VERTEX
  8
1
  6
CONTINUOUS
 62
    92
 10
3.054539
 20
2.295573
 30
0.0
  0
SEQEND
  8
1
  6
CONTINUOUS
 62
    92
  0
POLYLINE
  8
1
  6
CONTINUOUS
 62
    92
 66
     1
 10
0.0
 20
0.0
 30
0.0
  0
VERTEX
  8
1
  6
CONTINUOUS
 62
    92
 10
2.432528
 20
2.295573
 30
0.0
  0
VERTEX
  8
1
  6
CONTINUOUS
 62
    92
 10
2.432528
 20
2.353646
 30
0.0
  0
SEQEND
  8
1
  6
CONTINUOUS
 62
    92
  0
POLYLINE
  8
1
  6
CONTINUOUS
 62
    92
 66
     1
 10
0.0
 20
0.0
 30
0.0
  0
VERTEX
  8
1
  6
CONTINUOUS
 62
    92
 10
2.445945
 20
2.353646
 30
0.0
  0
VERTEX
  8
1
  6
CONTINUOUS
 62
    92
 10
2.432528
 20
2.353646
 30
0.0
  0
SEQEND
  8
1
  6
CONTINUOUS
 62
    92
  0
POLYLINE
  8
1
  6
CONTINUOUS
 62
    92
 66
     1
 10
0.0
 20
0.0
 30
0.0
  0
VERTEX
  8
1
  6
CONTINUOUS
 62
    92
 10
2.482924
 20
2.353646
 30
0.0
  0
VERTEX
  8
1
  6
CONTINUOUS
 62
    92
 10
2.686955
 20
2.353646
 30
0.0
  0
SEQEND
  8
1
  6
CONTINUOUS
 62
    92
  0
POLYLINE
  8
1
  6
CONTINUOUS
 62
    92
 66
     1
 10
0.0
 20
0.0
 30
0.0
  0
VERTEX
  8
1
  6
CONTINUOUS
 62
    92
 10
2.723934
 20
2.353646
 30
0.0
  0
VERTEX
  8
1
  6
CONTINUOUS
 62
    92
 10
2.930966
 20
2.353646
 30
0.0
  0
SEQEND
  8
1
  6
CONTINUOUS
 62
    92
  0
POLYLINE
  8
1
  6
CONTINUOUS
 62
    92
 66
     1
 10
0.0
 20
0.0
 30
0.0
  0
VERTEX
  8
1
  6
CONTINUOUS
 62
    92
 10
2.967945
 20
2.353646
 30
0.0
  0
VERTEX
  8
1
  6
CONTINUOUS
 62
    92
 10
3.067039
 20
2.353646
 30
0.0
  0
SEQEND
  8
1
  6
CONTINUOUS
 62
    92
  0
3DFACE
  8
1
  6
CONTINUOUS
 62
    92
 10
2.47732
 20
2.299219
 30
0.0
 11
2.505059
 21
2.315239
 31
0.0
 12
2.407789
 22
2.483729
 32
0.0
 13
2.380059
 23
2.467708
 33
0.0
  0
3DFACE
  8
1
  6
CONTINUOUS
 62
    92
 10
2.718466
 20
2.299219
 30
0.0
 11
2.74607
 21
2.315239
 31
0.0
 12
2.648809
 22
2.483729
 32
0.0
 13
2.62107
 23
2.467708
 33
0.0
  0
3DFACE
  8
1
  6
CONTINUOUS
 62
    92
 10
2.962351
 20
2.299219
 30
0.0
 11
2.99008
 21
2.315239
 31
0.0
 12
2.89282
 22
2.483729
 32
0.0
 13
2.86508
 23
2.467708
 33
0.0
  0
POLYLINE
  8
1
  6
CONTINUOUS
 62
    92
 66
     1
 10
0.0
 20
0.0
 30
0.0
  0
VERTEX
  8
1
  6
CONTINUOUS
 62
    92
 10
2.459487
 20
2.492969
 30
0.0
  0
VERTEX
  8
1
  6
CONTINUOUS
 62
    92
 10
2.459487
 20
2.523698
 30
0.0
  0
SEQEND
  8
1
  6
CONTINUOUS
 62
    92
  0
POLYLINE
  8
1
  6
CONTINUOUS
 62
    92
 66
     1
 10
0.0
 20
0.0
 30
0.0
  0
VERTEX
  8
1
  6
CONTINUOUS
 62
    92
 10
2.459487
 20
2.523698
 30
0.0
  0
VERTEX
  8
1
  6
CONTINUOUS
 62
    92
 10
2.710007
 20
2.523698
 30
0.0
  0
SEQEND
  8
1
  6
CONTINUOUS
 62
    92
  0
POLYLINE
  8
1
  6
CONTINUOUS
 62
    92
 66
     1
 10
0.0
 20
0.0
 30
0.0
  0
VERTEX
  8
1
  6
CONTINUOUS
 62
    92
 10
2.710007
 20
2.523698
 30
0.0
  0
VERTEX
  8
1
  6
CONTINUOUS
 62
    92
 10
2.710007
 20
2.492969
 30
0.0
  0
SEQEND
  8
1
  6
CONTINUOUS
 62
    92
  0
POLYLINE
  8
1
  6
CONTINUOUS
 62
    92
 66
     1
 10
0.0
 20
0.0
 30
0.0
  0
VERTEX
  8
1
  6
CONTINUOUS
 62
    92
 10
2.443466
 20
2.67201
 30
0.0
  0
VERTEX
  8
1
  6
CONTINUOUS
 62
    92
 10
2.723809
 20
2.67201
 30
0.0
  0
SEQEND
  8
1
  6
CONTINUOUS
 62
    92
  0
POLYLINE
  8
1
  6
CONTINUOUS
 62
    92
 66
     1
 10
0.0
 20
0.0
 30
0.0
  0
VERTEX
  8
1
  6
CONTINUOUS
 62
    92
 10
2.755059
 20
2.64076
 30
0.0
  0
VERTEX
  8
1
  6
CONTINUOUS
 62
    92
 10
2.755059
 20
2.554948
 30
0.0
  0
SEQEND
  8
1
  6
CONTINUOUS
 62
    92
  0
POLYLINE
  8
1
  6
CONTINUOUS
 62
    92
 66
     1
 10
0.0
 20
0.0
 30
0.0
  0
VERTEX
  8
1
  6
CONTINUOUS
 62
    92
 10
2.723809
 20
2.523698
 30
0.0
  0
VERTEX
  8
1
  6
CONTINUOUS
 62
    92
 10
2.443466
 20
2.523698
 30
0.0
  0
SEQEND
  8
1
  6
CONTINUOUS
 62
    92
  0
POLYLINE
  8
1
  6
CONTINUOUS
 62
    92
 66
     1
 10
0.0
 20
0.0
 30
0.0
  0
VERTEX
  8
1
  6
CONTINUOUS
 62
    92
 10
2.412216
 20
2.554948
 30
0.0
  0
VERTEX
  8
1
  6
CONTINUOUS
 62
    92
 10
2.412216
 20
2.64076
 30
0.0
  0
SEQEND
  8
1
  6
CONTINUOUS
 62
    92
  0
POLYLINE
  8
1
  6
CONTINUOUS
 62
    92
 66
     1
 10
0.0
 20
0.0
 30
0.0
  0
VERTEX
  8
1
  6
CONTINUOUS
 62
    92
 10
2.487997
 20
2.67201
 30
0.0
  0
VERTEX
  8
1
  6
CONTINUOUS
 62
    92
 10
2.487997
 20
2.678646
 30
0.0
  0
SEQEND
  8
1
  6
CONTINUOUS
 62
    92
  0
POLYLINE
  8
1
  6
CONTINUOUS
 62
    92
 66
     1
 10
0.0
 20
0.0
 30
0.0
  0
VERTEX
  8
1
  6
CONTINUOUS
 62
    92
 10
2.50883
 20
2.699479
 30
0.0
  0
VERTEX
  8
1
  6
CONTINUOUS
 62
    92
 10
2.665997
 20
2.699479
 30
0.0
  0
SEQEND
  8
1
  6
CONTINUOUS
 62
    92
  0
POLYLINE
  8
1
  6
CONTINUOUS
 62
    92
 66
     1
 10
0.0
 20
0.0
 30
0.0
  0
VERTEX
  8
1
  6
CONTINUOUS
 62
    92
 10
2.68683
 20
2.678646
 30
0.0
  0
VERTEX
  8
1
  6
CONTINUOUS
 62
    92
 10
2.68683
 20
2.67201
 30
0.0
  0
SEQEND
  8
1
  6
CONTINUOUS
 62
    92
  0
LINE
  8
1
  6
CONTINUOUS
 62
   215
 10
2.412216
 20
2.623698
 30
0.0
 11
2.755059
 21
2.623698
 31
0.0
  0
LINE
  8
1
  6
CONTINUOUS
 62
   215
 10
2.755059
 20
2.580864
 30
0.0
 11
2.412216
 21
2.580864
 31
0.0
  0
POLYLINE
  8
1
  6
CONTINUOUS
 62
     2
 66
     1
 10
0.0
 20
0.0
 30
0.0
  0
VERTEX
  8
1
  6
CONTINUOUS
 62
     2
 10
2.276414
 20
2.169146
 30
0.0
  0
VERTEX
  8
1
  6
CONTINUOUS
 62
     2
 10
3.060132
 20
2.169146
 30
0.0
  0
SEQEND
  8
1
  6
CONTINUOUS
 62
     2
  0
POLYLINE
  8
1
  6
CONTINUOUS
 62
     2
 66
     1
 10
0.0
 20
0.0
 30
0.0
  0
VERTEX
  8
1
  6
CONTINUOUS
 62
     2
 10
2.276414
 20
2.114979
 30
0.0
  0
VERTEX
  8
1
  6
CONTINUOUS
 62
     2
 10
3.066778
 20
2.114979
 30
0.0
  0
SEQEND
  8
1
  6
CONTINUOUS
 62
     2
  0
POLYLINE
  8
1
  6
CONTINUOUS
 62
     2
 66
     1
 10
0.0
 20
0.0
 30
0.0
  0
VERTEX
  8
1
  6
CONTINUOUS
 62
     2
 10
2.276414
 20
1.955083
 30
0.0
  0
VERTEX
  8
1
  6
CONTINUOUS
 62
     2
 10
3.076018
 20
1.955083
 30
0.0
  0
SEQEND
  8
1
  6
CONTINUOUS
 62
     2
  0
POLYLINE
  8
1
  6
CONTINUOUS
 62
     2
 66
     1
 10
0.0
 20
0.0
 30
0.0
  0
VERTEX
  8
1
  6
CONTINUOUS
 62
     2
 10
2.276414
 20
1.900917
 30
0.0
  0
VERTEX
  8
1
  6
CONTINUOUS
 62
     2
 10
3.067684
 20
1.900917
 30
0.0
  0
SEQEND
  8
1
  6
CONTINUOUS
 62
     2
  0
POLYLINE
  8
1
  6
CONTINUOUS
 62
    92
 66
     1
 10
0.0
 20
0.0
 30
0.0
  0
VERTEX
  8
1
  6
CONTINUOUS
 62
    92
 10
2.23058
 20
1.838542
 30
0.0
  0
VERTEX
  8
1
  6
CONTINUOUS
 62
    92
 10
2.458966
 20
1.511333
 30
0.0
  0
SEQEND
  8
1
  6
CONTINUOUS
 62
    92
  0
POLYLINE
  8
1
  6
CONTINUOUS
 62
    92
 66
     1
 10
0.0
 20
0.0
 30
0.0
  0
VERTEX
  8
1
  6
CONTINUOUS
 62
    92
 10
2.458966
 20
1.511333
 30
0.0
  0
VERTEX
  8
1
  6
CONTINUOUS
 62
    92
 10
3.683705
 20
1.511333
 30
0.0
  0
SEQEND
  8
1
  6
CONTINUOUS
 62
    92
  0
POLYLINE
  8
1
  6
CONTINUOUS
 62
    92
 66
     1
 10
0.0
 20
0.0
 30
0.0
  0
VERTEX
  8
1
  6
CONTINUOUS
 62
    92
 10
3.912091
 20
1.838542
 30
0.0
  0
VERTEX
  8
1
  6
CONTINUOUS
 62
    92
 10
3.683705
 20
1.511333
 30
0.0
  0
SEQEND
  8
1
  6
CONTINUOUS
 62
    92
  0
POLYLINE
  8
1
  6
CONTINUOUS
 62
    92
 66
     1
 10
0.0
 20
0.0
 30
0.0
  0
VERTEX
  8
1
  6
CONTINUOUS
 62
    92
 10
3.864434
 20
1.838542
 30
0.0
  0
VERTEX
  8
1
  6
CONTINUOUS
 62
    92
 10
3.636174
 20
1.511333
 30
0.0
  0
SEQEND
  8
1
  6
CONTINUOUS
 62
    92
  0
POLYLINE
  8
1
  6
CONTINUOUS
 62
    92
 66
     1
 10
0.0
 20
0.0
 30
0.0
  0
VERTEX
  8
1
  6
CONTINUOUS
 62
    92
 10
2.276018
 20
1.838542
 30
0.0
  0
VERTEX
  8
1
  6
CONTINUOUS
 62
    92
 10
2.504278
 20
1.511333
 30
0.0
  0
SEQEND
  8
1
  6
CONTINUOUS
 62
    92
  0
POLYLINE
  8
1
  6
CONTINUOUS
 62
   252
 66
     1
 10
0.0
 20
0.0
 30
0.0
  0
VERTEX
  8
1
  6
CONTINUOUS
 62
   252
 10
3.683705
 20
1.511333
 30
0.0
  0
VERTEX
  8
1
  6
CONTINUOUS
 62
   252
 10
3.683705
 20
1.321354
 30
0.0
  0
SEQEND
  8
1
  6
CONTINUOUS
 62
   252
  0
POLYLINE
  8
1
  6
CONTINUOUS
 62
   252
 66
     1
 10
0.0
 20
0.0
 30
0.0
  0
VERTEX
  8
1
  6
CONTINUOUS
 62
   252
 10
2.458966
 20
1.321354
 30
0.0
  0
VERTEX
  8
1
  6
CONTINUOUS
 62
   252
 10
2.458966
 20
1.511333
 30
0.0
  0
SEQEND
  8
1
  6
CONTINUOUS
 62
   252
  0
POLYLINE
  8
1
  6
CONTINUOUS
 62
    92
 66
     1
 10
0.0
 20
0.0
 30
0.0
  0
VERTEX
  8
1
  6
CONTINUOUS
 62
    92
 10
2.458966
 20
1.379042
 30
0.0
  0
VERTEX
  8
1
  6
CONTINUOUS
 62
    92
 10
3.683705
 20
1.379042
 30
0.0
  0
SEQEND
  8
1
  6
CONTINUOUS
 62
    92
  0
POLYLINE
  8
1
  6
CONTINUOUS
 62
    92
 66
     1
 10
0.0
 20
0.0
 30
0.0
  0
VERTEX
  8
1
  6
CONTINUOUS
 62
    92
 10
3.318861
 20
1.642969
 30
0.0
  0
VERTEX
  8
1
  6
CONTINUOUS
 62
    92
 10
3.597247
 20
1.642969
 30
0.0
  0
VERTEX
  8
1
  6
CONTINUOUS
 62
    92
 10
3.597247
 20
1.734115
 30
0.0
  0
VERTEX
  8
1
  6
CONTINUOUS
 62
    92
 10
3.318861
 20
1.734115
 30
0.0
  0
SEQEND
  8
1
  6
CONTINUOUS
 62
    92
  0
POLYLINE
  8
1
  6
CONTINUOUS
 62
   252
 66
     1
 10
0.0
 20
0.0
 30
0.0
  0
VERTEX
  8
1
  6
CONTINUOUS
 62
   252
 10
3.597247
 20
1.688542
 30
0.0
  0
VERTEX
  8
1
  6
CONTINUOUS
 62
   252
 10
3.995684
 20
1.688542
 30
0.0
  0
SEQEND
  8
1
  6
CONTINUOUS
 62
   252
  0
POLYLINE
  8
1
  6
CONTINUOUS
 62
     2
 66
     1
 10
0.0
 20
0.0
 30
0.0
  0
VERTEX
  8
1
  6
CONTINUOUS
 62
     2
 10
2.510007
 20
1.511333
 30
0.0
  0
VERTEX
  8
1
  6
CONTINUOUS
 62
     2
 10
2.510007
 20
1.379042
 30
0.0
  0
SEQEND
  8
1
  6
CONTINUOUS
 62
     2
  0
POLYLINE
  8
1
  6
CONTINUOUS
 62
     2
 66
     1
 10
0.0
 20
0.0
 30
0.0
  0
VERTEX
  8
1
  6
CONTINUOUS
 62
     2
 10
2.553237
 20
1.379042
 30
0.0
  0
VERTEX
  8
1
  6
CONTINUOUS
 62
     2
 10
2.553237
 20
1.511333
 30
0.0
  0
SEQEND
  8
1
  6
CONTINUOUS
 62
     2
  0
POLYLINE
  8
1
  6
CONTINUOUS
 62
     2
 66
     1
 10
0.0
 20
0.0
 30
0.0
  0
VERTEX
  8
1
  6
CONTINUOUS
 62
     2
 10
2.596466
 20
1.511333
 30
0.0
  0
VERTEX
  8
1
  6
CONTINUOUS
 62
     2
 10
2.596466
 20
1.379042
 30
0.0
  0
SEQEND
  8
1
  6
CONTINUOUS
 62
     2
  0
POLYLINE
  8
1
  6
CONTINUOUS
 62
     2
 66
     1
 10
0.0
 20
0.0
 30
0.0
  0
VERTEX
  8
1
  6
CONTINUOUS
 62
     2
 10
2.639695
 20
1.511333
 30
0.0
  0
VERTEX
  8
1
  6
CONTINUOUS
 62
     2
 10
2.639695
 20
1.379042
 30
0.0
  0
SEQEND
  8
1
  6
CONTINUOUS
 62
     2
  0
POLYLINE
  8
1
  6
CONTINUOUS
 62
     2
 66
     1
 10
0.0
 20
0.0
 30
0.0
  0
VERTEX
  8
1
  6
CONTINUOUS
 62
     2
 10
2.682924
 20
1.379042
 30
0.0
  0
VERTEX
  8
1
  6
CONTINUOUS
 62
     2
 10
2.682924
 20
1.511333
 30
0.0
  0
SEQEND
  8
1
  6
CONTINUOUS
 62
     2
  0
POLYLINE
  8
1
  6
CONTINUOUS
 62
     2
 66
     1
 10
0.0
 20
0.0
 30
0.0
  0
VERTEX
  8
1
  6
CONTINUOUS
 62
     2
 10
2.726018
 20
1.511333
 30
0.0
  0
VERTEX
  8
1
  6
CONTINUOUS
 62
     2
 10
2.726018
 20
1.379042
 30
0.0
  0
SEQEND
  8
1
  6
CONTINUOUS
 62
     2
  0
POLYLINE
  8
1
  6
CONTINUOUS
 62
     2
 66
     1
 10
0.0
 20
0.0
 30
0.0
  0
VERTEX
  8
1
  6
CONTINUOUS
 62
     2
 10
2.769247
 20
1.511333
 30
0.0
  0
VERTEX
  8
1
  6
CONTINUOUS
 62
     2
 10
2.769247
 20
1.379042
 30
0.0
  0
SEQEND
  8
1
  6
CONTINUOUS
 62
     2
  0
POLYLINE
  8
1
  6
CONTINUOUS
 62
     2
 66
     1
 10
0.0
 20
0.0
 30
0.0
  0
VERTEX
  8
1
  6
CONTINUOUS
 62
     2
 10
2.812476
 20
1.379042
 30
0.0
  0
VERTEX
  8
1
  6
CONTINUOUS
 62
     2
 10
2.812476
 20
1.511333
 30
0.0
  0
SEQEND
  8
1
  6
CONTINUOUS
 62
     2
  0
POLYLINE
  8
1
  6
CONTINUOUS
 62
     2
 66
     1
 10
0.0
 20
0.0
 30
0.0
  0
VERTEX
  8
1
  6
CONTINUOUS
 62
     2
 10
2.855705
 20
1.511333
 30
0.0
  0
VERTEX
  8
1
  6
CONTINUOUS
 62
     2
 10
2.855705
 20
1.379042
 30
0.0
  0
SEQEND
  8
1
  6
CONTINUOUS
 62
     2
  0
POLYLINE
  8
1
  6
CONTINUOUS
 62
     2
 66
     1
 10
0.0
 20
0.0
 30
0.0
  0
VERTEX
  8
1
  6
CONTINUOUS
 62
     2
 10
2.898809
 20
1.511333
 30
0.0
  0
VERTEX
  8
1
  6
CONTINUOUS
 62
     2
 10
2.898809
 20
1.379042
 30
0.0
  0
SEQEND
  8
1
  6
CONTINUOUS
 62
     2
  0
POLYLINE
  8
1
  6
CONTINUOUS
 62
     2
 66
     1
 10
0.0
 20
0.0
 30
0.0
  0
VERTEX
  8
1
  6
CONTINUOUS
 62
     2
 10
2.942039
 20
1.379042
 30
0.0
  0
VERTEX
  8
1
  6
CONTINUOUS
 62
     2
 10
2.942039
 20
1.511333
 30
0.0
  0
SEQEND
  8
1
  6
CONTINUOUS
 62
     2
  0
POLYLINE
  8
1
  6
CONTINUOUS
 62
     2
 66
     1
 10
0.0
 20
0.0
 30
0.0
  0
VERTEX
  8
1
  6
CONTINUOUS
 62
     2
 10
2.985268
 20
1.511333
 30
0.0
  0
VERTEX
  8
1
  6
CONTINUOUS
 62
     2
 10
2.985268
 20
1.379042
 30
0.0
  0
SEQEND
  8
1
  6
CONTINUOUS
 62
     2
  0
POLYLINE
  8
1
  6
CONTINUOUS
 62
     2
 66
     1
 10
0.0
 20
0.0
 30
0.0
  0
VERTEX
  8
1
  6
CONTINUOUS
 62
     2
 10
3.028497
 20
1.511333
 30
0.0
  0
VERTEX
  8
1
  6
CONTINUOUS
 62
     2
 10
3.028497
 20
1.379042
 30
0.0
  0
SEQEND
  8
1
  6
CONTINUOUS
 62
     2
  0
POLYLINE
  8
1
  6
CONTINUOUS
 62
     2
 66
     1
 10
0.0
 20
0.0
 30
0.0
  0
VERTEX
  8
1
  6
CONTINUOUS
 62
     2
 10
3.071591
 20
1.379042
 30
0.0
  0
VERTEX
  8
1
  6
CONTINUOUS
 62
     2
 10
3.071591
 20
1.511333
 30
0.0
  0
SEQEND
  8
1
  6
CONTINUOUS
 62
     2
  0
POLYLINE
  8
1
  6
CONTINUOUS
 62
     2
 66
     1
 10
0.0
 20
0.0
 30
0.0
  0
VERTEX
  8
1
  6
CONTINUOUS
 62
     2
 10
3.11482
 20
1.511333
 30
0.0
  0
VERTEX
  8
1
  6
CONTINUOUS
 62
     2
 10
3.11482
 20
1.379042
 30
0.0
  0
SEQEND
  8
1
  6
CONTINUOUS
 62
     2
  0
POLYLINE
  8
1
  6
CONTINUOUS
 62
     2
 66
     1
 10
0.0
 20
0.0
 30
0.0
  0
VERTEX
  8
1
  6
CONTINUOUS
 62
     2
 10
3.158049
 20
1.511333
 30
0.0
  0
VERTEX
  8
1
  6
CONTINUOUS
 62
     2
 10
3.158049
 20
1.379042
 30
0.0
  0
SEQEND
  8
1
  6
CONTINUOUS
 62
     2
  0
POLYLINE
  8
1
  6
CONTINUOUS
 62
     2
 66
     1
 10
0.0
 20
0.0
 30
0.0
  0
VERTEX
  8
1
  6
CONTINUOUS
 62
     2
 10
3.201278
 20
1.379042
 30
0.0
  0
VERTEX
  8
1
  6
CONTINUOUS
 62
     2
 10
3.201278
 20
1.511333
 30
0.0
  0
SEQEND
  8
1
  6
CONTINUOUS
 62
     2
  0
POLYLINE
  8
1
  6
CONTINUOUS
 62
     2
 66
     1
 10
0.0
 20
0.0
 30
0.0
  0
VERTEX
  8
1
  6
CONTINUOUS
 62
     2
 10
3.244507
 20
1.511333
 30
0.0
  0
VERTEX
  8
1
  6
CONTINUOUS
 62
     2
 10
3.244507
 20
1.379042
 30
0.0
  0
SEQEND
  8
1
  6
CONTINUOUS
 62
     2
  0
POLYLINE
  8
1
  6
CONTINUOUS
 62
     2
 66
     1
 10
0.0
 20
0.0
 30
0.0
  0
VERTEX
  8
1
  6
CONTINUOUS
 62
     2
 10
3.287611
 20
1.511333
 30
0.0
  0
VERTEX
  8
1
  6
CONTINUOUS
 62
     2
 10
3.287611
 20
1.379042
 30
0.0
  0
SEQEND
  8
1
  6
CONTINUOUS
 62
     2
  0
POLYLINE
  8
1
  6
CONTINUOUS
 62
     2
 66
     1
 10
0.0
 20
0.0
 30
0.0
  0
VERTEX
  8
1
  6
CONTINUOUS
 62
     2
 10
3.330841
 20
1.379042
 30
0.0
  0
VERTEX
  8
1
  6
CONTINUOUS
 62
     2
 10
3.330841
 20
1.511333
 30
0.0
  0
SEQEND
  8
1
  6
CONTINUOUS
 62
     2
  0
POLYLINE
  8
1
  6
CONTINUOUS
 62
     2
 66
     1
 10
0.0
 20
0.0
 30
0.0
  0
VERTEX
  8
1
  6
CONTINUOUS
 62
     2
 10
3.37407
 20
1.511333
 30
0.0
  0
VERTEX
  8
1
  6
CONTINUOUS
 62
     2
 10
3.37407
 20
1.379042
 30
0.0
  0
SEQEND
  8
1
  6
CONTINUOUS
 62
     2
  0
POLYLINE
  8
1
  6
CONTINUOUS
 62
     2
 66
     1
 10
0.0
 20
0.0
 30
0.0
  0
VERTEX
  8
1
  6
CONTINUOUS
 62
     2
 10
3.417299
 20
1.511333
 30
0.0
  0
VERTEX
  8
1
  6
CONTINUOUS
 62
     2
 10
3.417299
 20
1.379042
 30
0.0
  0
SEQEND
  8
1
  6
CONTINUOUS
 62
     2
  0
POLYLINE
  8
1
  6
CONTINUOUS
 62
     2
 66
     1
 10
0.0
 20
0.0
 30
0.0
  0
VERTEX
  8
1
  6
CONTINUOUS
 62
     2
 10
3.460393
 20
1.379042
 30
0.0
  0
VERTEX
  8
1
  6
CONTINUOUS
 62
     2
 10
3.460393
 20
1.511333
 30
0.0
  0
SEQEND
  8
1
  6
CONTINUOUS
 62
     2
  0
POLYLINE
  8
1
  6
CONTINUOUS
 62
     2
 66
     1
 10
0.0
 20
0.0
 30
0.0
  0
VERTEX
  8
1
  6
CONTINUOUS
 62
     2
 10
3.503622
 20
1.511333
 30
0.0
  0
VERTEX
  8
1
  6
CONTINUOUS
 62
     2
 10
3.503622
 20
1.379042
 30
0.0
  0
SEQEND
  8
1
  6
CONTINUOUS
 62
     2
  0
POLYLINE
  8
1
  6
CONTINUOUS
 62
     2
 66
     1
 10
0.0
 20
0.0
 30
0.0
  0
VERTEX
  8
1
  6
CONTINUOUS
 62
     2
 10
3.546851
 20
1.511333
 30
0.0
  0
VERTEX
  8
1
  6
CONTINUOUS
 62
     2
 10
3.546851
 20
1.379042
 30
0.0
  0
SEQEND
  8
1
  6
CONTINUOUS
 62
     2
  0
POLYLINE
  8
1
  6
CONTINUOUS
 62
     2
 66
     1
 10
0.0
 20
0.0
 30
0.0
  0
VERTEX
  8
1
  6
CONTINUOUS
 62
     2
 10
3.59008
 20
1.379042
 30
0.0
  0
VERTEX
  8
1
  6
CONTINUOUS
 62
     2
 10
3.59008
 20
1.511333
 30
0.0
  0
SEQEND
  8
1
  6
CONTINUOUS
 62
     2
  0
POLYLINE
  8
1
  6
CONTINUOUS
 62
     2
 66
     1
 10
0.0
 20
0.0
 30
0.0
  0
VERTEX
  8
1
  6
CONTINUOUS
 62
     2
 10
3.633184
 20
1.511333
 30
0.0
  0
VERTEX
  8
1
  6
CONTINUOUS
 62
     2
 10
3.633184
 20
1.379042
 30
0.0
  0
SEQEND
  8
1
  6
CONTINUOUS
 62
     2
  0
POLYLINE
  8
1
  6
CONTINUOUS
 62
   252
 66
     1
 10
0.0
 20
0.0
 30
0.0
  0
VERTEX
  8
1
  6
CONTINUOUS
 62
   252
 10
3.918601
 20
1.321354
 30
0.0
  0
VERTEX
  8
1
  6
CONTINUOUS
 62
   252
 10
2.224591
 20
1.321354
 30
0.0
  0
SEQEND
  8
1
  6
CONTINUOUS
 62
   252
  0
POLYLINE
  8
1
  6
CONTINUOUS
 62
   252
 66
     1
 10
0.0
 20
0.0
 30
0.0
  0
VERTEX
  8
1
  6
CONTINUOUS
 62
   252
 10
2.224591
 20
1.321354
 30
0.0
  0
VERTEX
  8
1
  6
CONTINUOUS
 62
   252
 10
2.382528
 20
0.893229
 30
0.0
  0
SEQEND
  8
1
  6
CONTINUOUS
 62
   252
  0
POLYLINE
  8
1
  6
CONTINUOUS
 62
   252
 66
     1
 10
0.0
 20
0.0
 30
0.0
  0
VERTEX
  8
1
  6
CONTINUOUS
 62
   252
 10
2.382528
 20
0.893229
 30
0.0
  0
VERTEX
  8
1
  6
CONTINUOUS
 62
   252
 10
3.760653
 20
0.893229
 30
0.0
  0
SEQEND
  8
1
  6
CONTINUOUS
 62
   252
  0
POLYLINE
  8
1
  6
CONTINUOUS
 62
   252
 66
     1
 10
0.0
 20
0.0
 30
0.0
  0
VERTEX
  8
1
  6
CONTINUOUS
 62
   252
 10
3.918601
 20
1.321354
 30
0.0
  0
VERTEX
  8
1
  6
CONTINUOUS
 62
   252
 10
3.760653
 20
0.893229
 30
0.0
  0
SEQEND
  8
1
  6
CONTINUOUS
 62
   252
  0
POLYLINE
  8
1
  6
CONTINUOUS
 62
    92
 66
     1
 10
0.0
 20
0.0
 30
0.0
  0
VERTEX
  8
1
  6
CONTINUOUS
 62
    92
 10
3.445028
 20
1.321875
 30
0.0
  0
VERTEX
  8
1
  6
CONTINUOUS
 62
    92
 10
3.445028
 20
0.893229
 30
0.0
  0
SEQEND
  8
1
  6
CONTINUOUS
 62
    92
  0
POLYLINE
  8
1
  6
CONTINUOUS
 62
    92
 66
     1
 10
0.0
 20
0.0
 30
0.0
  0
VERTEX
  8
1
  6
CONTINUOUS
 62
    92
 10
2.712736
 20
0.893229
 30
0.0
  0
VERTEX
  8
1
  6
CONTINUOUS
 62
    92
 10
2.712736
 20
1.321354
 30
0.0
  0
SEQEND
  8
1
  6
CONTINUOUS
 62
    92
  0
3DFACE
  8
1
  6
CONTINUOUS
 62
    92
 10
3.995684
 20
1.578521
 30
0.0
 11
4.189695
 21
1.578521
 31
0.0
 12
4.189695
 22
1.797531
 32
0.0
 13
3.995684
 23
1.797531
 33
0.0
  0
POLYLINE
  8
1
  6
CONTINUOUS
 62
    92
 66
     1
 10
0.0
 20
0.0
 30
0.0
210
0.0
220
0.0
230
0.9999999999999999
  0
VERTEX
  8
1
  6
CONTINUOUS
 62
    92
 10
3.318861
 20
1.734115
 30
0.0
  0
VERTEX
  8
1
  6
CONTINUOUS
 62
    92
 10
3.311695
 20
1.733594
 30
0.0
  0
VERTEX
  8
1
  6
CONTINUOUS
 62
    92
 10
3.304799
 20
1.731906
 30
0.0
  0
VERTEX
  8
1
  6
CONTINUOUS
 62
    92
 10
3.298153
 20
1.729167
 30
0.0
  0
VERTEX
  8
1
  6
CONTINUOUS
 62
    92
 10
3.292039
 20
1.725396
 30
0.0
  0
VERTEX
  8
1
  6
CONTINUOUS
 62
    92
 10
3.28657
 20
1.720833
 30
0.0
  0
VERTEX
  8
1
  6
CONTINUOUS
 62
    92
 10
3.282007
 20
1.715365
 30
0.0
  0
VERTEX
  8
1
  6
CONTINUOUS
 62
    92
 10
3.278236
 20
1.70925
 30
0.0
  0
VERTEX
  8
1
  6
CONTINUOUS
 62
    92
 10
3.275497
 20
1.702604
 30
0.0
  0
VERTEX
  8
1
  6
CONTINUOUS
 62
    92
 10
3.273809
 20
1.695708
 30
0.0
  0
VERTEX
  8
1
  6
CONTINUOUS
 62
    92
 10
3.273289
 20
1.688542
 30
0.0
  0
VERTEX
  8
1
  6
CONTINUOUS
 62
    92
 10
3.273809
 20
1.681385
 30
0.0
  0
VERTEX
  8
1
  6
CONTINUOUS
 62
    92
 10
3.275497
 20
1.674479
 30
0.0
  0
VERTEX
  8
1
  6
CONTINUOUS
 62
    92
 10
3.278236
 20
1.667844
 30
0.0
  0
VERTEX
  8
1
  6
CONTINUOUS
 62
    92
 10
3.282007
 20
1.661719
 30
0.0
  0
VERTEX
  8
1
  6
CONTINUOUS
 62
    92
 10
3.28657
 20
1.656385
 30
0.0
  0
VERTEX
  8
1
  6
CONTINUOUS
 62
    92
 10
3.292039
 20
1.651698
 30
0.0
  0
VERTEX
  8
1
  6
CONTINUOUS
 62
    92
 10
3.298153
 20
1.647917
 30
0.0
  0
VERTEX
  8
1
  6
CONTINUOUS
 62
    92
 10
3.304799
 20
1.645187
 30
0.0
  0
VERTEX
  8
1
  6
CONTINUOUS
 62
    92
 10
3.311695
 20
1.64349
 30
0.0
  0
VERTEX
  8
1
  6
CONTINUOUS
 62
    92
 10
3.318861
 20
1.642969
 30
0.0
  0
SEQEND
  8
1
  6
CONTINUOUS
 62
    92
  0
POLYLINE
  8
1
  6
CONTINUOUS
 62
     2
 66
     1
 10
0.0
 20
0.0
 30
0.0
  0
VERTEX
  8
1
  6
CONTINUOUS
 62
     2
 10
2.712736
 20
1.243625
 30
0.0
  0
VERTEX
  8
1
  6
CONTINUOUS
 62
     2
 10
3.445028
 20
1.243625
 30
0.0
  0
SEQEND
  8
1
  6
CONTINUOUS
 62
     2
  0
POLYLINE
  8
1
  6
CONTINUOUS
 62
     2
 66
     1
 10
0.0
 20
0.0
 30
0.0
  0
VERTEX
  8
1
  6
CONTINUOUS
 62
     2
 10
2.712736
 20
1.1655
 30
0.0
  0
VERTEX
  8
1
  6
CONTINUOUS
 62
     2
 10
3.445028
 20
1.1655
 30
0.0
  0
SEQEND
  8
1
  6
CONTINUOUS
 62
     2
  0
POLYLINE
  8
1
  6
CONTINUOUS
 62
     2
 66
     1
 10
0.0
 20
0.0
 30
0.0
  0
VERTEX
  8
1
  6
CONTINUOUS
 62
     2
 10
2.712736
 20
1.084115
 30
0.0
  0
VERTEX
  8
1
  6
CONTINUOUS
 62
     2
 10
3.445028
 20
1.084115
 30
0.0
  0
SEQEND
  8
1
  6
CONTINUOUS
 62
     2
  0
POLYLINE
  8
1
  6
CONTINUOUS
 62
     2
 66
     1
 10
0.0
 20
0.0
 30
0.0
  0
VERTEX
  8
1
  6
CONTINUOUS
 62
     2
 10
2.712736
 20
1.00899
 30
0.0
  0
VERTEX
  8
1
  6
CONTINUOUS
 62
     2
 10
3.445028
 20
1.00899
 30
0.0
  0
SEQEND
  8
1
  6
CONTINUOUS
 62
     2
  0
POLYLINE
  8
1
  6
CONTINUOUS
 62
     2
 66
     1
 10
0.0
 20
0.0
 30
0.0
  0
VERTEX
  8
1
  6
CONTINUOUS
 62
     2
 10
2.712736
 20
0.933854
 30
0.0
  0
VERTEX
  8
1
  6
CONTINUOUS
 62
     2
 10
3.445028
 20
0.933854
 30
0.0
  0
SEQEND
  8
1
  6
CONTINUOUS
 62
     2
  0
LINE
  8
1
  6
CONTINUOUS
 62
   215
 10
3.679143
 20
1.511333
 30
0.0
 11
3.694247
 21
1.526437
 31
0.0
  0
LINE
  8
1
  6
CONTINUOUS
 62
   215
 10
3.667424
 20
1.556125
 30
0.0
 11
3.824851
 21
1.713677
 31
0.0
  0
LINE
  8
1
  6
CONTINUOUS
 62
   215
 10
3.798028
 20
1.743365
 30
0.0
 11
3.911955
 21
1.857292
 31
0.0
  0
LINE
  8
1
  6
CONTINUOUS
 62
   215
 10
3.864434
 20
1.866406
 30
0.0
 11
3.911955
 21
1.913802
 31
0.0
  0
LINE
  8
1
  6
CONTINUOUS
 62
   215
 10
3.864434
 20
1.922917
 30
0.0
 11
3.91183
 21
1.970312
 31
0.0
  0
LINE
  8
1
  6
CONTINUOUS
 62
   215
 10
3.864434
 20
1.979427
 30
0.0
 11
3.91183
 21
2.026823
 31
0.0
  0
LINE
  8
1
  6
CONTINUOUS
 62
   215
 10
3.864434
 20
2.036073
 30
0.0
 11
3.911695
 21
2.083333
 31
0.0
  0
LINE
  8
1
  6
CONTINUOUS
 62
   215
 10
3.864434
 20
2.092583
 30
0.0
 11
3.91157
 21
2.139844
 31
0.0
  0
LINE
  8
1
  6
CONTINUOUS
 62
   215
 10
3.864434
 20
2.149219
 30
0.0
 11
3.91157
 21
2.196229
 31
0.0
  0
LINE
  8
1
  6
CONTINUOUS
 62
   215
 10
3.864434
 20
2.205729
 30
0.0
 11
3.911434
 21
2.252739
 31
0.0
  0
LINE
  8
1
  6
CONTINUOUS
 62
   215
 10
3.864434
 20
2.262375
 30
0.0
 11
3.911434
 21
2.30925
 31
0.0
  0
LINE
  8
1
  6
CONTINUOUS
 62
   215
 10
3.864434
 20
2.318885
 30
0.0
 11
3.911309
 21
2.36576
 31
0.0
  0
LINE
  8
1
  6
CONTINUOUS
 62
   215
 10
3.864434
 20
2.375521
 30
0.0
 11
3.911309
 21
2.422271
 31
0.0
  0
LINE
  8
1
  6
CONTINUOUS
 62
   215
 10
3.864434
 20
2.432031
 30
0.0
 11
3.911174
 21
2.478781
 31
0.0
  0
LINE
  8
1
  6
CONTINUOUS
 62
   215
 10
3.864434
 20
2.488542
 30
0.0
 11
3.911049
 21
2.535292
 31
0.0
  0
LINE
  8
1
  6
CONTINUOUS
 62
   215
 10
3.864434
 20
2.545187
 30
0.0
 11
3.911049
 21
2.591802
 31
0.0
  0
LINE
  8
1
  6
CONTINUOUS
 62
   215
 10
3.864434
 20
2.601698
 30
0.0
 11
3.910914
 21
2.648177
 31
0.0
  0
LINE
  8
1
  6
CONTINUOUS
 62
   215
 10
3.864434
 20
2.658333
 30
0.0
 11
3.910914
 21
2.704687
 31
0.0
  0
LINE
  8
1
  6
CONTINUOUS
 62
   215
 10
3.864434
 20
2.714844
 30
0.0
 11
3.910789
 21
2.761198
 31
0.0
  0
LINE
  8
1
  6
CONTINUOUS
 62
   215
 10
3.864434
 20
2.771489
 30
0.0
 11
3.910653
 21
2.817708
 31
0.0
  0
LINE
  8
1
  6
CONTINUOUS
 62
   215
 10
3.864434
 20
2.828
 30
0.0
 11
3.910653
 21
2.874219
 31
0.0
  0
POLYLINE
  8
1
  6
CONTINUOUS
 62
    92
 66
     1
 10
0.0
 20
0.0
 30
0.0
  0
VERTEX
  8
1
  6
CONTINUOUS
 62
    92
 10
2.491257
 20
1.511333
 30
0.0
  0
VERTEX
  8
1
  6
CONTINUOUS
 62
    92
 10
2.498934
 20
1.51901
 30
0.0
  0
SEQEND
  8
1
  6
CONTINUOUS
 62
    92
  0
LINE
  8
1
  6
CONTINUOUS
 62
   215
 10
3.864434
 20
2.884635
 30
0.0
 11
3.910528
 21
2.930729
 31
0.0
  0
LINE
  8
1
  6
CONTINUOUS
 62
   215
 10
2.448934
 20
1.525656
 30
0.0
 11
2.475632
 21
1.552344
 31
0.0
  0
LINE
  8
1
  6
CONTINUOUS
 62
   215
 10
3.864434
 20
2.941146
 30
0.0
 11
3.910528
 21
2.987239
 31
0.0
  0
LINE
  8
1
  6
CONTINUOUS
 62
   215
 10
2.425757
 20
1.55899
 30
0.0
 11
2.452455
 21
1.585677
 31
0.0
  0
LINE
  8
1
  6
CONTINUOUS
 62
   215
 10
3.864434
 20
2.997656
 30
0.0
 11
3.910393
 21
3.043625
 31
0.0
  0
LINE
  8
1
  6
CONTINUOUS
 62
   215
 10
2.402455
 20
1.592323
 30
0.0
 11
2.429143
 21
1.61901
 31
0.0
  0
LINE
  8
1
  6
CONTINUOUS
 62
   215
 10
3.864434
 20
3.054302
 30
0.0
 11
3.910268
 21
3.100135
 31
0.0
  0
LINE
  8
1
  6
CONTINUOUS
 62
   215
 10
2.379278
 20
1.625656
 30
0.0
 11
2.405966
 21
1.652344
 31
0.0
  0
LINE
  8
1
  6
CONTINUOUS
 62
   215
 10
3.864434
 20
3.110812
 30
0.0
 11
3.910268
 21
3.156646
 31
0.0
  0
LINE
  8
1
  6
CONTINUOUS
 62
   215
 10
2.355966
 20
1.65899
 30
0.0
 11
2.382664
 21
1.685677
 31
0.0
  0
LINE
  8
1
  6
CONTINUOUS
 62
   215
 10
3.864434
 20
3.167448
 30
0.0
 11
3.910132
 21
3.213156
 31
0.0
  0
LINE
  8
1
  6
CONTINUOUS
 62
   215
 10
2.332664
 20
1.692323
 30
0.0
 11
2.359351
 21
1.71901
 31
0.0
  0
LINE
  8
1
  6
CONTINUOUS
 62
   215
 10
3.864434
 20
3.223958
 30
0.0
 11
3.910132
 21
3.269667
 31
0.0
  0
LINE
  8
1
  6
CONTINUOUS
 62
   215
 10
2.309487
 20
1.725521
 30
0.0
 11
2.336174
 21
1.752344
 31
0.0
  0
LINE
  8
1
  6
CONTINUOUS
 62
   215
 10
3.864434
 20
3.280604
 30
0.0
 11
3.910007
 21
3.326177
 31
0.0
  0
LINE
  8
1
  6
CONTINUOUS
 62
   215
 10
2.286174
 20
1.758854
 30
0.0
 11
2.312872
 21
1.785552
 31
0.0
  0
LINE
  8
1
  6
CONTINUOUS
 62
   215
 10
3.864434
 20
3.337114
 30
0.0
 11
3.905445
 21
3.378125
 31
0.0
  0
LINE
  8
1
  6
CONTINUOUS
 62
   215
 10
2.262997
 20
1.792187
 30
0.0
 11
2.289695
 21
1.818885
 31
0.0
  0
LINE
  8
1
  6
CONTINUOUS
 62
   215
 10
2.239695
 20
1.825521
 30
0.0
 11
2.276018
 21
1.861854
 31
0.0
  0
LINE
  8
1
  6
CONTINUOUS
 62
   215
 10
2.23058
 20
1.873052
 30
0.0
 11
2.276018
 21
1.918365
 31
0.0
  0
LINE
  8
1
  6
CONTINUOUS
 62
   215
 10
2.23058
 20
1.929562
 30
0.0
 11
2.276018
 21
1.974875
 31
0.0
  0
LINE
  8
1
  6
CONTINUOUS
 62
   215
 10
2.23058
 20
1.986198
 30
0.0
 11
2.276018
 21
2.03151
 31
0.0
  0
LINE
  8
1
  6
CONTINUOUS
 62
   215
 10
2.23058
 20
2.042708
 30
0.0
 11
2.276018
 21
2.088021
 31
0.0
  0
LINE
  8
1
  6
CONTINUOUS
 62
   215
 10
2.23058
 20
2.099219
 30
0.0
 11
2.276018
 21
2.144667
 31
0.0
  0
LINE
  8
1
  6
CONTINUOUS
 62
   215
 10
2.23058
 20
2.155864
 30
0.0
 11
2.276018
 21
2.201177
 31
0.0
  0
LINE
  8
1
  6
CONTINUOUS
 62
   215
 10
2.23058
 20
2.212375
 30
0.0
 11
2.276018
 21
2.257812
 31
0.0
  0
LINE
  8
1
  6
CONTINUOUS
 62
   215
 10
2.23058
 20
2.26901
 30
0.0
 11
2.276018
 21
2.314323
 31
0.0
  0
LINE
  8
1
  6
CONTINUOUS
 62
   215
 10
2.23058
 20
2.325521
 30
0.0
 11
2.276018
 21
2.370969
 31
0.0
  0
LINE
  8
1
  6
CONTINUOUS
 62
   215
 10
2.23058
 20
2.382031
 30
0.0
 11
2.276018
 21
2.427479
 31
0.0
  0
LINE
  8
1
  6
CONTINUOUS
 62
   215
 10
2.23058
 20
2.438677
 30
0.0
 11
2.276018
 21
2.483989
 31
0.0
  0
LINE
  8
1
  6
CONTINUOUS
 62
   215
 10
2.23058
 20
2.495187
 30
0.0
 11
2.276018
 21
2.540625
 31
0.0
  0
LINE
  8
1
  6
CONTINUOUS
 62
   215
 10
2.23058
 20
2.551823
 30
0.0
 11
2.276018
 21
2.597135
 31
0.0
  0
LINE
  8
1
  6
CONTINUOUS
 62
   215
 10
2.23058
 20
2.608333
 30
0.0
 11
2.276018
 21
2.653781
 31
0.0
  0
LINE
  8
1
  6
CONTINUOUS
 62
   215
 10
2.23058
 20
2.664844
 30
0.0
 11
2.276018
 21
2.710292
 31
0.0
  0
LINE
  8
1
  6
CONTINUOUS
 62
   215
 10
2.23058
 20
2.721489
 30
0.0
 11
2.276018
 21
2.766927
 31
0.0
  0
LINE
  8
1
  6
CONTINUOUS
 62
   215
 10
2.23058
 20
2.778
 30
0.0
 11
2.276018
 21
2.823437
 31
0.0
  0
LINE
  8
1
  6
CONTINUOUS
 62
   215
 10
2.23058
 20
2.834635
 30
0.0
 11
2.276018
 21
2.880083
 31
0.0
  0
LINE
  8
1
  6
CONTINUOUS
 62
   215
 10
2.23058
 20
2.891146
 30
0.0
 11
2.276018
 21
2.936594
 31
0.0
  0
LINE
  8
1
  6
CONTINUOUS
 62
   215
 10
2.230445
 20
2.947656
 30
0.0
 11
2.276018
 21
2.993229
 31
0.0
  0
LINE
  8
1
  6
CONTINUOUS
 62
   215
 10
2.230445
 20
3.004302
 30
0.0
 11
2.276018
 21
3.049739
 31
0.0
  0
LINE
  8
1
  6
CONTINUOUS
 62
   215
 10
2.230445
 20
3.060812
 30
0.0
 11
2.276018
 21
3.10625
 31
0.0
  0
LINE
  8
1
  6
CONTINUOUS
 62
   215
 10
2.230445
 20
3.117448
 30
0.0
 11
2.276018
 21
3.162896
 31
0.0
  0
LINE
  8
1
  6
CONTINUOUS
 62
   215
 10
2.230445
 20
3.173958
 30
0.0
 11
2.276018
 21
3.219406
 31
0.0
  0
LINE
  8
1
  6
CONTINUOUS
 62
   215
 10
2.230445
 20
3.230469
 30
0.0
 11
2.276018
 21
3.276042
 31
0.0
  0
LINE
  8
1
  6
CONTINUOUS
 62
   215
 10
2.230445
 20
3.287114
 30
0.0
 11
2.276018
 21
3.332552
 31
0.0
  0
LINE
  8
1
  6
CONTINUOUS
 62
   215
 10
2.230445
 20
3.343625
 30
0.0
 11
2.276018
 21
3.389198
 31
0.0
  0
POLYLINE
  8
1
  6
CONTINUOUS
 62
     2
 66
     1
 10
0.0
 20
0.0
 30
0.0
  0
VERTEX
  8
1
  6
CONTINUOUS
 62
     2
 10
3.329278
 20
3.240625
 30
0.0
  0
VERTEX
  8
1
  6
CONTINUOUS
 62
     2
 10
3.857268
 20
3.028906
 30
0.0
  0
SEQEND
  8
1
  6
CONTINUOUS
 62
     2
  0
POLYLINE
  8
1
  6
CONTINUOUS
 62
     2
 66
     1
 10
0.0
 20
0.0
 30
0.0
  0
VERTEX
  8
1
  6
CONTINUOUS
 62
     2
 10
3.329278
 20
3.120448
 30
0.0
  0
VERTEX
  8
1
  6
CONTINUOUS
 62
     2
 10
3.857268
 20
3.028906
 30
0.0
  0
SEQEND
  8
1
  6
CONTINUOUS
 62
     2
  0
POLYLINE
  8
1
  6
CONTINUOUS
 62
     2
 66
     1
 10
0.0
 20
0.0
 30
0.0
  0
VERTEX
  8
1
  6
CONTINUOUS
 62
     2
 10
2.819643
 20
3.245573
 30
0.0
  0
VERTEX
  8
1
  6
CONTINUOUS
 62
     2
 10
2.309872
 20
3.03425
 30
0.0
  0
SEQEND
  8
1
  6
CONTINUOUS
 62
     2
  0
POLYLINE
  8
1
  6
CONTINUOUS
 62
     2
 66
     1
 10
0.0
 20
0.0
 30
0.0
  0
VERTEX
  8
1
  6
CONTINUOUS
 62
     2
 10
2.819643
 20
3.119271
 30
0.0
  0
VERTEX
  8
1
  6
CONTINUOUS
 62
     2
 10
2.309872
 20
3.03425
 30
0.0
  0
SEQEND
  8
1
  6
CONTINUOUS
 62
     2
  0
TEXT
  8
LEADER-TEXT
  6
CONTINUOUS
 10
4.587997
 20
2.551042
 30
0.0
 40
0.125
  1
AIR STREAM
  7
ROMANS
  0
TEXT
  8
LEADER-TEXT
  6
CONTINUOUS
 10
4.587997
 20
2.363542
 30
0.0
 40
0.125
  1
THERMOSTAT
  7
ROMANS
  0
TEXT
  8
TITLE
  6
CONTINUOUS
 62
     7
 10
2.238914
 20
0.651698
 30
0.0
 40
0.125
  1
4-WAY DIFFUSER
  7
ROMANS
  0
TEXT
  8
1
  6
CONTINUOUS
 62
    92
 10
0.02381
 20
1.886854
 30
0.0
 40
0.125
  1
HWS
  7
ROMANS
  0
TEXT
  8
LEADER-TEXT
  6
CONTINUOUS
 10
1.407528
 20
1.292187
 30
0.0
 40
0.125
  1
GATE
  7
ROMANS
  0
TEXT
  8
LEADER-TEXT
  6
CONTINUOUS
 10
1.419507
 20
1.104687
 30
0.0
 40
0.125
  1
VALVE
  7
ROMANS
  0
POLYLINE
  8
1
  6
CONTINUOUS
 62
   252
 66
     1
 10
0.0
 20
0.0
 30
0.0
  0
VERTEX
  8
1
  6
CONTINUOUS
 62
   252
 10
2.23058
 20
1.942062
 30
0.0
  0
VERTEX
  8
1
  6
CONTINUOUS
 62
   252
 10
1.588653
 20
1.942062
 30
0.0
  0
SEQEND
  8
1
  6
CONTINUOUS
 62
   252
  0
POLYLINE
  8
1
  6
CONTINUOUS
 62
   252
 66
     1
 10
0.0
 20
0.0
 30
0.0
  0
VERTEX
  8
1
  6
CONTINUOUS
 62
   252
 10
1.492945
 20
1.942062
 30
0.0
  0
VERTEX
  8
1
  6
CONTINUOUS
 62
   252
 10
1.223934
 20
1.942062
 30
0.0
  0
SEQEND
  8
1
  6
CONTINUOUS
 62
   252
  0
POLYLINE
  8
1
  6
CONTINUOUS
 62
   252
 66
     1
 10
0.0
 20
0.0
 30
0.0
  0
VERTEX
  8
1
  6
CONTINUOUS
 62
   252
 10
0.963778
 20
1.942062
 30
0.0
  0
VERTEX
  8
1
  6
CONTINUOUS
 62
   252
 10
0.465862
 20
1.942062
 30
0.0
  0
SEQEND
  8
1
  6
CONTINUOUS
 62
   252
  0
TEXT
  8
1
  6
CONTINUOUS
 62
    92
 10
0.011174
 20
2.638677
 30
0.0
 40
0.125
  1
HWR
  7
ROMANS
  0
POLYLINE
  8
1
  6
CONTINUOUS
 62
   252
 66
     1
 10
0.0
 20
0.0
 30
0.0
  0
VERTEX
  8
1
  6
CONTINUOUS
 62
   252
 10
2.232403
 20
2.685937
 30
0.0
  0
VERTEX
  8
1
  6
CONTINUOUS
 62
   252
 10
2.045549
 20
2.685937
 30
0.0
  0
SEQEND
  8
1
  6
CONTINUOUS
 62
   252
  0
POLYLINE
  8
1
  6
CONTINUOUS
 62
   252
 66
     1
 10
0.0
 20
0.0
 30
0.0
  0
VERTEX
  8
1
  6
CONTINUOUS
 62
   252
 10
1.739955
 20
2.685937
 30
0.0
  0
VERTEX
  8
1
  6
CONTINUOUS
 62
   252
 10
1.739955
 20
3.416406
 30
0.0
  0
SEQEND
  8
1
  6
CONTINUOUS
 62
   252
  0
POLYLINE
  8
1
  6
CONTINUOUS
 62
   252
 66
     1
 10
0.0
 20
0.0
 30
0.0
  0
VERTEX
  8
1
  6
CONTINUOUS
 62
   252
 10
1.739955
 20
3.416406
 30
0.0
  0
VERTEX
  8
1
  6
CONTINUOUS
 62
   252
 10
1.097632
 20
3.416406
 30
0.0
  0
SEQEND
  8
1
  6
CONTINUOUS
 62
   252
  0
POLYLINE
  8
1
  6
CONTINUOUS
 62
   252
 66
     1
 10
0.0
 20
0.0
 30
0.0
  0
VERTEX
  8
1
  6
CONTINUOUS
 62
   252
 10
1.097632
 20
3.416406
 30
0.0
  0
VERTEX
  8
1
  6
CONTINUOUS
 62
   252
 10
1.097632
 20
3.338156
 30
0.0
  0
SEQEND
  8
1
  6
CONTINUOUS
 62
   252
  0
POLYLINE
  8
1
  6
CONTINUOUS
 62
   252
 66
     1
 10
0.0
 20
0.0
 30
0.0
  0
VERTEX
  8
1
  6
CONTINUOUS
 62
   252
 10
1.097632
 20
3.142969
 30
0.0
  0
VERTEX
  8
1
  6
CONTINUOUS
 62
   252
 10
1.097632
 20
2.975135
 30
0.0
  0
SEQEND
  8
1
  6
CONTINUOUS
 62
   252
  0
POLYLINE
  8
1
  6
CONTINUOUS
 62
   252
 66
     1
 10
0.0
 20
0.0
 30
0.0
  0
VERTEX
  8
1
  6
CONTINUOUS
 62
   252
 10
1.946466
 20
2.685937
 30
0.0
  0
VERTEX
  8
1
  6
CONTINUOUS
 62
   252
 10
1.570289
 20
2.685937
 30
0.0
  0
SEQEND
  8
1
  6
CONTINUOUS
 62
   252
  0
POLYLINE
  8
1
  6
CONTINUOUS
 62
   252
 66
     1
 10
0.0
 20
0.0
 30
0.0
  0
VERTEX
  8
1
  6
CONTINUOUS
 62
   252
 10
1.311695
 20
2.685937
 30
0.0
  0
VERTEX
  8
1
  6
CONTINUOUS
 62
   252
 10
1.125893
 20
2.685937
 30
0.0
  0
SEQEND
  8
1
  6
CONTINUOUS
 62
   252
  0
POLYLINE
  8
1
  6
CONTINUOUS
 62
   252
 66
     1
 10
0.0
 20
0.0
 30
0.0
  0
VERTEX
  8
1
  6
CONTINUOUS
 62
   252
 10
0.865737
 20
2.685937
 30
0.0
  0
VERTEX
  8
1
  6
CONTINUOUS
 62
   252
 10
0.465862
 20
2.685937
 30
0.0
  0
SEQEND
  8
1
  6
CONTINUOUS
 62
   252
  0
LINE
  8
1
  6
CONTINUOUS
 62
   215
 10
5.034486
 20
3.577479
 30
0.0
 11
5.078882
 21
3.62175
 31
0.0
  0
LINE
  8
1
  6
CONTINUOUS
 62
   215
 10
4.930841
 20
3.577479
 30
0.0
 11
5.078882
 21
3.725521
 31
0.0
  0
LINE
  8
1
  6
CONTINUOUS
 62
   215
 10
4.827059
 20
3.577479
 30
0.0
 11
5.019382
 21
3.769792
 31
0.0
  0
LINE
  8
1
  6
CONTINUOUS
 62
   215
 10
4.723414
 20
3.577479
 30
0.0
 11
4.915736
 21
3.769792
 31
0.0
  0
LINE
  8
1
  6
CONTINUOUS
 62
   215
 10
4.619643
 20
3.577479
 30
0.0
 11
4.811955
 21
3.769792
 31
0.0
  0
LINE
  8
1
  6
CONTINUOUS
 62
   215
 10
4.515997
 20
3.577479
 30
0.0
 11
4.708309
 21
3.769792
 31
0.0
  0
LINE
  8
1
  6
CONTINUOUS
 62
   215
 10
4.412216
 20
3.577479
 30
0.0
 11
4.604539
 21
3.769792
 31
0.0
  0
LINE
  8
1
  6
CONTINUOUS
 62
   215
 10
4.30857
 20
3.577479
 30
0.0
 11
4.500893
 21
3.769792
 31
0.0
  0
LINE
  8
1
  6
CONTINUOUS
 62
   215
 10
4.204799
 20
3.577479
 30
0.0
 11
4.397247
 21
3.769792
 31
0.0
  0
LINE
  8
1
  6
CONTINUOUS
 62
   215
 10
4.101153
 20
3.577479
 30
0.0
 11
4.293466
 21
3.769792
 31
0.0
  0
LINE
  8
1
  6
CONTINUOUS
 62
   215
 10
3.997372
 20
3.577479
 30
0.0
 11
4.18982
 21
3.769792
 31
0.0
  0
LINE
  8
1
  6
CONTINUOUS
 62
   215
 10
3.893726
 20
3.577479
 30
0.0
 11
4.086049
 21
3.769792
 31
0.0
  0
LINE
  8
1
  6
CONTINUOUS
 62
   215
 10
3.789955
 20
3.577479
 30
0.0
 11
3.982403
 21
3.769792
 31
0.0
  0
LINE
  8
1
  6
CONTINUOUS
 62
   215
 10
3.686309
 20
3.577479
 30
0.0
 11
3.878622
 21
3.769792
 31
0.0
  0
LINE
  8
1
  6
CONTINUOUS
 62
   215
 10
3.582528
 20
3.577479
 30
0.0
 11
3.774976
 21
3.769792
 31
0.0
  0
LINE
  8
1
  6
CONTINUOUS
 62
   215
 10
3.478882
 20
3.577479
 30
0.0
 11
3.671205
 21
3.769792
 31
0.0
  0
LINE
  8
1
  6
CONTINUOUS
 62
   215
 10
3.375111
 20
3.577479
 30
0.0
 11
3.567559
 21
3.769792
 31
0.0
  0
LINE
  8
1
  6
CONTINUOUS
 62
   215
 10
3.271466
 20
3.577479
 30
0.0
 11
3.463778
 21
3.769792
 31
0.0
  0
LINE
  8
1
  6
CONTINUOUS
 62
   215
 10
3.16782
 20
3.577479
 30
0.0
 11
3.360132
 21
3.769792
 31
0.0
  0
LINE
  8
1
  6
CONTINUOUS
 62
   215
 10
3.064039
 20
3.577479
 30
0.0
 11
3.256361
 21
3.769792
 31
0.0
  0
LINE
  8
1
  6
CONTINUOUS
 62
   215
 10
2.960393
 20
3.577479
 30
0.0
 11
3.152716
 21
3.769792
 31
0.0
  0
LINE
  8
1
  6
CONTINUOUS
 62
   215
 10
2.856622
 20
3.577479
 30
0.0
 11
3.048934
 21
3.769792
 31
0.0
  0
LINE
  8
1
  6
CONTINUOUS
 62
   215
 10
2.752976
 20
3.577479
 30
0.0
 11
2.945289
 21
3.769792
 31
0.0
  0
LINE
  8
1
  6
CONTINUOUS
 62
   215
 10
2.649195
 20
3.577479
 30
0.0
 11
2.841518
 21
3.769792
 31
0.0
  0
LINE
  8
1
  6
CONTINUOUS
 62
   215
 10
2.545549
 20
3.577479
 30
0.0
 11
2.737872
 21
3.769792
 31
0.0
  0
LINE
  8
1
  6
CONTINUOUS
 62
   215
 10
2.441778
 20
3.577479
 30
0.0
 11
2.634091
 21
3.769792
 31
0.0
  0
LINE
  8
1
  6
CONTINUOUS
 62
   215
 10
2.338132
 20
3.577479
 30
0.0
 11
2.530445
 21
3.769792
 31
0.0
  0
LINE
  8
1
  6
CONTINUOUS
 62
   215
 10
2.234351
 20
3.577479
 30
0.0
 11
2.426674
 21
3.769792
 31
0.0
  0
LINE
  8
1
  6
CONTINUOUS
 62
   215
 10
2.130705
 20
3.577479
 30
0.0
 11
2.323028
 21
3.769792
 31
0.0
  0
LINE
  8
1
  6
CONTINUOUS
 62
   215
 10
2.026934
 20
3.577479
 30
0.0
 11
2.219247
 21
3.769792
 31
0.0
  0
LINE
  8
1
  6
CONTINUOUS
 62
   215
 10
1.923289
 20
3.577479
 30
0.0
 11
2.115601
 21
3.769792
 31
0.0
  0
LINE
  8
1
  6
CONTINUOUS
 62
   215
 10
1.819507
 20
3.577479
 30
0.0
 11
2.01183
 21
3.769792
 31
0.0
  0
LINE
  8
1
  6
CONTINUOUS
 62
   215
 10
1.715862
 20
3.577479
 30
0.0
 11
1.908184
 21
3.769792
 31
0.0
  0
LINE
  8
1
  6
CONTINUOUS
 62
   215
 10
1.612091
 20
3.577479
 30
0.0
 11
1.804403
 21
3.769792
 31
0.0
  0
LINE
  8
1
  6
CONTINUOUS
 62
   215
 10
1.508445
 20
3.577479
 30
0.0
 11
1.700757
 21
3.769792
 31
0.0
  0
LINE
  8
1
  6
CONTINUOUS
 62
   215
 10
1.404664
 20
3.577479
 30
0.0
 11
1.596987
 21
3.769792
 31
0.0
  0
LINE
  8
1
  6
CONTINUOUS
 62
   215
 10
1.301018
 20
3.577479
 30
0.0
 11
1.493341
 21
3.769792
 31
0.0
  0
LINE
  8
1
  6
CONTINUOUS
 62
   215
 10
1.197247
 20
3.577479
 30
0.0
 11
1.389559
 21
3.769792
 31
0.0
  0
LINE
  8
1
  6
CONTINUOUS
 62
   215
 10
1.093601
 20
3.577479
 30
0.0
 11
1.285914
 21
3.769792
 31
0.0
  0
LINE
  8
1
  6
CONTINUOUS
 62
   215
 10
0.98982
 20
3.577479
 30
0.0
 11
1.182143
 21
3.769792
 31
0.0
  0
LINE
  8
1
  6
CONTINUOUS
 62
   215
 10
0.886174
 20
3.577479
 30
0.0
 11
1.078497
 21
3.769792
 31
0.0
  0
LINE
  8
1
  6
CONTINUOUS
 62
   215
 10
0.782403
 20
3.577479
 30
0.0
 11
0.974851
 21
3.769792
 31
0.0
  0
LINE
  8
1
  6
CONTINUOUS
 62
   215
 10
0.678757
 20
3.577479
 30
0.0
 11
0.87107
 21
3.769792
 31
0.0
  0
LINE
  8
1
  6
CONTINUOUS
 62
   215
 10
0.574976
 20
3.577479
 30
0.0
 11
0.767424
 21
3.769792
 31
0.0
  0
LINE
  8
1
  6
CONTINUOUS
 62
   215
 10
0.47133
 20
3.577479
 30
0.0
 11
0.663653
 21
3.769792
 31
0.0
  0
LINE
  8
1
  6
CONTINUOUS
 62
   215
 10
0.377841
 20
3.587635
 30
0.0
 11
0.560007
 21
3.769792
 31
0.0
  0
LINE
  8
1
  6
CONTINUOUS
 62
   215
 10
0.377841
 20
3.691406
 30
0.0
 11
0.456226
 21
3.769792
 31
0.0
  0
LINE
  8
1
  6
CONTINUOUS
 62
   215
 10
5.030966
 20
3.625781
 30
0.0
 11
5.03383
 21
3.628646
 31
0.0
  0
LINE
  8
1
  6
CONTINUOUS
 62
   215
 10
4.901278
 20
3.599875
 30
0.0
 11
4.904278
 21
3.602739
 31
0.0
  0
LINE
  8
1
  6
CONTINUOUS
 62
   215
 10
4.953101
 20
3.651698
 30
0.0
 11
4.956101
 21
3.654562
 31
0.0
  0
LINE
  8
1
  6
CONTINUOUS
 62
   215
 10
5.004924
 20
3.703521
 30
0.0
 11
5.007924
 21
3.70651
 31
0.0
  0
LINE
  8
1
  6
CONTINUOUS
 62
   215
 10
5.056882
 20
3.755344
 30
0.0
 11
5.059747
 21
3.758333
 31
0.0
  0
LINE
  8
1
  6
CONTINUOUS
 62
   215
 10
4.823549
 20
3.625781
 30
0.0
 11
4.826413
 21
3.628646
 31
0.0
  0
LINE
  8
1
  6
CONTINUOUS
 62
   215
 10
4.875372
 20
3.677604
 30
0.0
 11
4.878236
 21
3.680604
 31
0.0
  0
LINE
  8
1
  6
CONTINUOUS
 62
   215
 10
4.927195
 20
3.729427
 30
0.0
 11
4.930184
 21
3.732427
 31
0.0
  0
LINE
  8
1
  6
CONTINUOUS
 62
   215
 10
4.693861
 20
3.599875
 30
0.0
 11
4.696851
 21
3.602739
 31
0.0
  0
LINE
  8
1
  6
CONTINUOUS
 62
   215
 10
4.745684
 20
3.651698
 30
0.0
 11
4.748674
 21
3.654562
 31
0.0
  0
LINE
  8
1
  6
CONTINUOUS
 62
   215
 10
4.797507
 20
3.703521
 30
0.0
 11
4.800497
 21
3.70651
 31
0.0
  0
LINE
  8
1
  6
CONTINUOUS
 62
   215
 10
4.849455
 20
3.755344
 30
0.0
 11
4.85232
 21
3.758333
 31
0.0
  0
LINE
  8
1
  6
CONTINUOUS
 62
   215
 10
4.616122
 20
3.625781
 30
0.0
 11
4.618986
 21
3.628646
 31
0.0
  0
LINE
  8
1
  6
CONTINUOUS
 62
   215
 10
4.667945
 20
3.677604
 30
0.0
 11
4.670809
 21
3.680604
 31
0.0
  0
LINE
  8
1
  6
CONTINUOUS
 62
   215
 10
4.719768
 20
3.729427
 30
0.0
 11
4.722768
 21
3.732427
 31
0.0
  0
LINE
  8
1
  6
CONTINUOUS
 62
   215
 10
4.486434
 20
3.599875
 30
0.0
 11
4.489434
 21
3.602739
 31
0.0
  0
LINE
  8
1
  6
CONTINUOUS
 62
   215
 10
4.538257
 20
3.651698
 30
0.0
 11
4.541257
 21
3.654562
 31
0.0
  0
LINE
  8
1
  6
CONTINUOUS
 62
   215
 10
4.59008
 20
3.703521
 30
0.0
 11
4.59308
 21
3.70651
 31
0.0
  0
LINE
  8
1
  6
CONTINUOUS
 62
   215
 10
4.642039
 20
3.755344
 30
0.0
 11
4.644903
 21
3.758333
 31
0.0
  0
LINE
  8
1
  6
CONTINUOUS
 62
   215
 10
4.408705
 20
3.625781
 30
0.0
 11
4.41157
 21
3.628646
 31
0.0
  0
LINE
  8
1
  6
CONTINUOUS
 62
   215
 10
4.460528
 20
3.677604
 30
0.0
 11
4.463393
 21
3.680604
 31
0.0
  0
LINE
  8
1
  6
CONTINUOUS
 62
   215
 10
4.512351
 20
3.729427
 30
0.0
 11
4.515341
 21
3.732427
 31
0.0
  0
LINE
  8
1
  6
CONTINUOUS
 62
   215
 10
4.279018
 20
3.599875
 30
0.0
 11
4.282007
 21
3.602739
 31
0.0
  0
LINE
  8
1
  6
CONTINUOUS
 62
   215
 10
4.330841
 20
3.651698
 30
0.0
 11
4.33383
 21
3.654562
 31
0.0
  0
LINE
  8
1
  6
CONTINUOUS
 62
   215
 10
4.382664
 20
3.703521
 30
0.0
 11
4.385653
 21
3.70651
 31
0.0
  0
LINE
  8
1
  6
CONTINUOUS
 62
   215
 10
4.434611
 20
3.755344
 30
0.0
 11
4.437476
 21
3.758333
 31
0.0
  0
LINE
  8
1
  6
CONTINUOUS
 62
   215
 10
4.201278
 20
3.625781
 30
0.0
 11
4.204143
 21
3.628646
 31
0.0
  0
LINE
  8
1
  6
CONTINUOUS
 62
   215
 10
4.253101
 20
3.677604
 30
0.0
 11
4.256101
 21
3.680604
 31
0.0
  0
LINE
  8
1
  6
CONTINUOUS
 62
   215
 10
4.304924
 20
3.729427
 30
0.0
 11
4.307924
 21
3.732427
 31
0.0
  0
LINE
  8
1
  6
CONTINUOUS
 62
   215
 10
4.071591
 20
3.599875
 30
0.0
 11
4.074591
 21
3.602739
 31
0.0
  0
LINE
  8
1
  6
CONTINUOUS
 62
   215
 10
4.123414
 20
3.651698
 30
0.0
 11
4.126414
 21
3.654562
 31
0.0
  0
LINE
  8
1
  6
CONTINUOUS
 62
   215
 10
4.175372
 20
3.703521
 30
0.0
 11
4.178236
 21
3.70651
 31
0.0
  0
LINE
  8
1
  6
CONTINUOUS
 62
   215
 10
4.227195
 20
3.755344
 30
0.0
 11
4.230059
 21
3.758333
 31
0.0
  0
LINE
  8
1
  6
CONTINUOUS
 62
   215
 10
3.993861
 20
3.625781
 30
0.0
 11
3.996726
 21
3.628646
 31
0.0
  0
LINE
  8
1
  6
CONTINUOUS
 62
   215
 10
4.045684
 20
3.677604
 30
0.0
 11
4.048674
 21
3.680604
 31
0.0
  0
LINE
  8
1
  6
CONTINUOUS
 62
   215
 10
4.097507
 20
3.729427
 30
0.0
 11
4.100497
 21
3.732427
 31
0.0
  0
LINE
  8
1
  6
CONTINUOUS
 62
   215
 10
3.864174
 20
3.599875
 30
0.0
 11
3.867164
 21
3.602739
 31
0.0
  0
LINE
  8
1
  6
CONTINUOUS
 62
   215
 10
3.915997
 20
3.651698
 30
0.0
 11
3.918986
 21
3.654562
 31
0.0
  0
LINE
  8
1
  6
CONTINUOUS
 62
   215
 10
3.967945
 20
3.703521
 30
0.0
 11
3.970809
 21
3.70651
 31
0.0
  0
LINE
  8
1
  6
CONTINUOUS
 62
   215
 10
4.019768
 20
3.755344
 30
0.0
 11
4.022632
 21
3.758333
 31
0.0
  0
LINE
  8
1
  6
CONTINUOUS
 62
   215
 10
3.786434
 20
3.625781
 30
0.0
 11
3.789299
 21
3.628646
 31
0.0
  0
LINE
  8
1
  6
CONTINUOUS
 62
   215
 10
3.838257
 20
3.677604
 30
0.0
 11
3.841257
 21
3.680604
 31
0.0
  0
LINE
  8
1
  6
CONTINUOUS
 62
   215
 10
3.89008
 20
3.729427
 30
0.0
 11
3.89308
 21
3.732427
 31
0.0
  0
LINE
  8
1
  6
CONTINUOUS
 62
   215
 10
3.656747
 20
3.599875
 30
0.0
 11
3.659747
 21
3.602739
 31
0.0
  0
LINE
  8
1
  6
CONTINUOUS
 62
   215
 10
3.70857
 20
3.651698
 30
0.0
 11
3.71157
 21
3.654562
 31
0.0
  0
LINE
  8
1
  6
CONTINUOUS
 62
   215
 10
3.760528
 20
3.703521
 30
0.0
 11
3.763393
 21
3.70651
 31
0.0
  0
LINE
  8
1
  6
CONTINUOUS
 62
   215
 10
3.812351
 20
3.755344
 30
0.0
 11
3.815216
 21
3.758333
 31
0.0
  0
LINE
  8
1
  6
CONTINUOUS
 62
   215
 10
3.579018
 20
3.625781
 30
0.0
 11
3.581882
 21
3.628646
 31
0.0
  0
LINE
  8
1
  6
CONTINUOUS
 62
   215
 10
3.630841
 20
3.677604
 30
0.0
 11
3.63383
 21
3.680604
 31
0.0
  0
LINE
  8
1
  6
CONTINUOUS
 62
   215
 10
3.682664
 20
3.729427
 30
0.0
 11
3.685653
 21
3.732427
 31
0.0
  0
LINE
  8
1
  6
CONTINUOUS
 62
   215
 10
3.44933
 20
3.599875
 30
0.0
 11
3.45232
 21
3.602739
 31
0.0
  0
LINE
  8
1
  6
CONTINUOUS
 62
   215
 10
3.501153
 20
3.651698
 30
0.0
 11
3.504143
 21
3.654562
 31
0.0
  0
LINE
  8
1
  6
CONTINUOUS
 62
   215
 10
3.553101
 20
3.703521
 30
0.0
 11
3.555966
 21
3.70651
 31
0.0
  0
LINE
  8
1
  6
CONTINUOUS
 62
   215
 10
3.604924
 20
3.755344
 30
0.0
 11
3.607789
 21
3.758333
 31
0.0
  0
LINE
  8
1
  6
CONTINUOUS
 62
   215
 10
3.371591
 20
3.625781
 30
0.0
 11
3.374455
 21
3.628646
 31
0.0
  0
LINE
  8
1
  6
CONTINUOUS
 62
   215
 10
3.423414
 20
3.677604
 30
0.0
 11
3.426414
 21
3.680604
 31
0.0
  0
LINE
  8
1
  6
CONTINUOUS
 62
   215
 10
3.475236
 20
3.729427
 30
0.0
 11
3.478236
 21
3.732427
 31
0.0
  0
LINE
  8
1
  6
CONTINUOUS
 62
   215
 10
3.241903
 20
3.599875
 30
0.0
 11
3.244903
 21
3.602739
 31
0.0
  0
LINE
  8
1
  6
CONTINUOUS
 62
   215
 10
3.293726
 20
3.651698
 30
0.0
 11
3.296726
 21
3.654562
 31
0.0
  0
LINE
  8
1
  6
CONTINUOUS
 62
   215
 10
3.345684
 20
3.703521
 30
0.0
 11
3.348549
 21
3.70651
 31
0.0
  0
LINE
  8
1
  6
CONTINUOUS
 62
   215
 10
3.397507
 20
3.755344
 30
0.0
 11
3.400497
 21
3.758333
 31
0.0
  0
LINE
  8
1
  6
CONTINUOUS
 62
   215
 10
3.164174
 20
3.625781
 30
0.0
 11
3.167039
 21
3.628646
 31
0.0
  0
LINE
  8
1
  6
CONTINUOUS
 62
   215
 10
3.215997
 20
3.677604
 30
0.0
 11
3.218986
 21
3.680604
 31
0.0
  0
LINE
  8
1
  6
CONTINUOUS
 62
   215
 10
3.26782
 20
3.729427
 30
0.0
 11
3.270809
 21
3.732427
 31
0.0
  0
LINE
  8
1
  6
CONTINUOUS
 62
   215
 10
3.034486
 20
3.599875
 30
0.0
 11
3.037476
 21
3.602739
 31
0.0
  0
LINE
  8
1
  6
CONTINUOUS
 62
   215
 10
3.086309
 20
3.651698
 30
0.0
 11
3.089299
 21
3.654562
 31
0.0
  0
LINE
  8
1
  6
CONTINUOUS
 62
   215
 10
3.138257
 20
3.703521
 30
0.0
 11
3.141122
 21
3.70651
 31
0.0
  0
LINE
  8
1
  6
CONTINUOUS
 62
   215
 10
3.19008
 20
3.755344
 30
0.0
 11
3.19308
 21
3.758333
 31
0.0
  0
LINE
  8
1
  6
CONTINUOUS
 62
   215
 10
2.956747
 20
3.625781
 30
0.0
 11
2.959611
 21
3.628646
 31
0.0
  0
LINE
  8
1
  6
CONTINUOUS
 62
   215
 10
3.00857
 20
3.677604
 30
0.0
 11
3.01157
 21
3.680604
 31
0.0
  0
LINE
  8
1
  6
CONTINUOUS
 62
   215
 10
3.060393
 20
3.729427
 30
0.0
 11
3.063393
 21
3.732427
 31
0.0
  0
LINE
  8
1
  6
CONTINUOUS
 62
   215
 10
2.827059
 20
3.599875
 30
0.0
 11
2.830059
 21
3.602739
 31
0.0
  0
LINE
  8
1
  6
CONTINUOUS
 62
   215
 10
2.878882
 20
3.651698
 30
0.0
 11
2.881882
 21
3.654562
 31
0.0
  0
LINE
  8
1
  6
CONTINUOUS
 62
   215
 10
2.930841
 20
3.703521
 30
0.0
 11
2.933705
 21
3.70651
 31
0.0
  0
LINE
  8
1
  6
CONTINUOUS
 62
   215
 10
2.982664
 20
3.755344
 30
0.0
 11
2.985653
 21
3.758333
 31
0.0
  0
LINE
  8
1
  6
CONTINUOUS
 62
   215
 10
2.74933
 20
3.625781
 30
0.0
 11
2.752195
 21
3.628646
 31
0.0
  0
LINE
  8
1
  6
CONTINUOUS
 62
   215
 10
2.801153
 20
3.677604
 30
0.0
 11
2.804143
 21
3.680604
 31
0.0
  0
LINE
  8
1
  6
CONTINUOUS
 62
   215
 10
2.852976
 20
3.729427
 30
0.0
 11
2.855966
 21
3.732427
 31
0.0
  0
LINE
  8
1
  6
CONTINUOUS
 62
   215
 10
2.619643
 20
3.599875
 30
0.0
 11
2.622632
 21
3.602739
 31
0.0
  0
LINE
  8
1
  6
CONTINUOUS
 62
   215
 10
2.671466
 20
3.651698
 30
0.0
 11
2.674455
 21
3.654562
 31
0.0
  0
LINE
  8
1
  6
CONTINUOUS
 62
   215
 10
2.723414
 20
3.703521
 30
0.0
 11
2.726278
 21
3.70651
 31
0.0
  0
LINE
  8
1
  6
CONTINUOUS
 62
   215
 10
2.775236
 20
3.755344
 30
0.0
 11
2.778236
 21
3.758333
 31
0.0
  0
LINE
  8
1
  6
CONTINUOUS
 62
   215
 10
2.541903
 20
3.625781
 30
0.0
 11
2.544903
 21
3.628646
 31
0.0
  0
LINE
  8
1
  6
CONTINUOUS
 62
   215
 10
2.593726
 20
3.677604
 30
0.0
 11
2.596726
 21
3.680604
 31
0.0
  0
LINE
  8
1
  6
CONTINUOUS
 62
   215
 10
2.645549
 20
3.729427
 30
0.0
 11
2.648549
 21
3.732427
 31
0.0
  0
LINE
  8
1
  6
CONTINUOUS
 62
   215
 10
2.412216
 20
3.599875
 30
0.0
 11
2.415216
 21
3.602739
 31
0.0
  0
LINE
  8
1
  6
CONTINUOUS
 62
   215
 10
2.464174
 20
3.651698
 30
0.0
 11
2.467039
 21
3.654562
 31
0.0
  0
LINE
  8
1
  6
CONTINUOUS
 62
   215
 10
2.515997
 20
3.703521
 30
0.0
 11
2.518862
 21
3.70651
 31
0.0
  0
LINE
  8
1
  6
CONTINUOUS
 62
   215
 10
2.56782
 20
3.755344
 30
0.0
 11
2.570809
 21
3.758333
 31
0.0
  0
LINE
  8
1
  6
CONTINUOUS
 62
   215
 10
2.334487
 20
3.625781
 30
0.0
 11
2.337476
 21
3.628646
 31
0.0
  0
LINE
  8
1
  6
CONTINUOUS
 62
   215
 10
2.386309
 20
3.677604
 30
0.0
 11
2.389299
 21
3.680604
 31
0.0
  0
LINE
  8
1
  6
CONTINUOUS
 62
   215
 10
2.438132
 20
3.729427
 30
0.0
 11
2.441122
 21
3.732427
 31
0.0
  0
LINE
  8
1
  6
CONTINUOUS
 62
   215
 10
2.204799
 20
3.599875
 30
0.0
 11
2.207789
 21
3.602739
 31
0.0
  0
LINE
  8
1
  6
CONTINUOUS
 62
   215
 10
2.256747
 20
3.651698
 30
0.0
 11
2.259612
 21
3.654562
 31
0.0
  0
LINE
  8
1
  6
CONTINUOUS
 62
   215
 10
2.30857
 20
3.703521
 30
0.0
 11
2.311434
 21
3.70651
 31
0.0
  0
LINE
  8
1
  6
CONTINUOUS
 62
   215
 10
2.360393
 20
3.755344
 30
0.0
 11
2.363393
 21
3.758333
 31
0.0
  0
LINE
  8
1
  6
CONTINUOUS
 62
   215
 10
2.127059
 20
3.625781
 30
0.0
 11
2.130059
 21
3.628646
 31
0.0
  0
LINE
  8
1
  6
CONTINUOUS
 62
   215
 10
2.178882
 20
3.677604
 30
0.0
 11
2.181882
 21
3.680604
 31
0.0
  0
LINE
  8
1
  6
CONTINUOUS
 62
   215
 10
2.230705
 20
3.729427
 30
0.0
 11
2.233705
 21
3.732427
 31
0.0
  0
LINE
  8
1
  6
CONTINUOUS
 62
   215
 10
1.997372
 20
3.599875
 30
0.0
 11
2.000372
 21
3.602739
 31
0.0
  0
LINE
  8
1
  6
CONTINUOUS
 62
   215
 10
2.04933
 20
3.651698
 30
0.0
 11
2.052195
 21
3.654562
 31
0.0
  0
LINE
  8
1
  6
CONTINUOUS
 62
   215
 10
2.101153
 20
3.703521
 30
0.0
 11
2.104018
 21
3.70651
 31
0.0
  0
LINE
  8
1
  6
CONTINUOUS
 62
   215
 10
2.152976
 20
3.755344
 30
0.0
 11
2.155966
 21
3.758333
 31
0.0
  0
LINE
  8
1
  6
CONTINUOUS
 62
   215
 10
1.919643
 20
3.625781
 30
0.0
 11
1.922632
 21
3.628646
 31
0.0
  0
LINE
  8
1
  6
CONTINUOUS
 62
   215
 10
1.971466
 20
3.677604
 30
0.0
 11
1.974455
 21
3.680604
 31
0.0
  0
LINE
  8
1
  6
CONTINUOUS
 62
   215
 10
2.023289
 20
3.729427
 30
0.0
 11
2.026278
 21
3.732427
 31
0.0
  0
LINE
  8
1
  6
CONTINUOUS
 62
   215
 10
1.789955
 20
3.599875
 30
0.0
 11
1.792945
 21
3.602739
 31
0.0
  0
LINE
  8
1
  6
CONTINUOUS
 62
   215
 10
1.841903
 20
3.651698
 30
0.0
 11
1.844768
 21
3.654562
 31
0.0
  0
LINE
  8
1
  6
CONTINUOUS
 62
   215
 10
1.893726
 20
3.703521
 30
0.0
 11
1.896591
 21
3.70651
 31
0.0
  0
LINE
  8
1
  6
CONTINUOUS
 62
   215
 10
1.945549
 20
3.755344
 30
0.0
 11
1.948549
 21
3.758333
 31
0.0
  0
LINE
  8
1
  6
CONTINUOUS
 62
   215
 10
1.712216
 20
3.625781
 30
0.0
 11
1.715216
 21
3.628646
 31
0.0
  0
LINE
  8
1
  6
CONTINUOUS
 62
   215
 10
1.764039
 20
3.677604
 30
0.0
 11
1.767039
 21
3.680604
 31
0.0
  0
LINE
  8
1
  6
CONTINUOUS
 62
   215
 10
1.815862
 20
3.729427
 30
0.0
 11
1.818862
 21
3.732427
 31
0.0
  0
LINE
  8
1
  6
CONTINUOUS
 62
   215
 10
1.582528
 20
3.599875
 30
0.0
 11
1.585528
 21
3.602739
 31
0.0
  0
LINE
  8
1
  6
CONTINUOUS
 62
   215
 10
1.634487
 20
3.651698
 30
0.0
 11
1.637351
 21
3.654562
 31
0.0
  0
LINE
  8
1
  6
CONTINUOUS
 62
   215
 10
1.686309
 20
3.703521
 30
0.0
 11
1.689299
 21
3.70651
 31
0.0
  0
LINE
  8
1
  6
CONTINUOUS
 62
   215
 10
1.738132
 20
3.755344
 30
0.0
 11
1.741122
 21
3.758333
 31
0.0
  0
LINE
  8
1
  6
CONTINUOUS
 62
   215
 10
1.504799
 20
3.625781
 30
0.0
 11
1.507789
 21
3.628646
 31
0.0
  0
LINE
  8
1
  6
CONTINUOUS
 62
   215
 10
1.556622
 20
3.677604
 30
0.0
 11
1.559612
 21
3.680604
 31
0.0
  0
LINE
  8
1
  6
CONTINUOUS
 62
   215
 10
1.60857
 20
3.729427
 30
0.0
 11
1.611434
 21
3.732427
 31
0.0
  0
LINE
  8
1
  6
CONTINUOUS
 62
   215
 10
1.427059
 20
3.651698
 30
0.0
 11
1.429924
 21
3.654562
 31
0.0
  0
LINE
  8
1
  6
CONTINUOUS
 62
   215
 10
1.478882
 20
3.703521
 30
0.0
 11
1.481882
 21
3.70651
 31
0.0
  0
LINE
  8
1
  6
CONTINUOUS
 62
   215
 10
1.530705
 20
3.755344
 30
0.0
 11
1.533705
 21
3.758333
 31
0.0
  0
LINE
  8
1
  6
CONTINUOUS
 62
   215
 10
1.297372
 20
3.625781
 30
0.0
 11
1.300372
 21
3.628646
 31
0.0
  0
LINE
  8
1
  6
CONTINUOUS
 62
   215
 10
1.349195
 20
3.677604
 30
0.0
 11
1.352195
 21
3.680604
 31
0.0
  0
LINE
  8
1
  6
CONTINUOUS
 62
   215
 10
1.401153
 20
3.729427
 30
0.0
 11
1.404018
 21
3.732427
 31
0.0
  0
LINE
  8
1
  6
CONTINUOUS
 62
   215
 10
1.167684
 20
3.599875
 30
0.0
 11
1.170684
 21
3.602739
 31
0.0
  0
LINE
  8
1
  6
CONTINUOUS
 62
   215
 10
1.219643
 20
3.651698
 30
0.0
 11
1.222507
 21
3.654562
 31
0.0
  0
LINE
  8
1
  6
CONTINUOUS
 62
   215
 10
1.271466
 20
3.703521
 30
0.0
 11
1.274455
 21
3.70651
 31
0.0
  0
LINE
  8
1
  6
CONTINUOUS
 62
   215
 10
1.323289
 20
3.755344
 30
0.0
 11
1.326278
 21
3.758333
 31
0.0
  0
LINE
  8
1
  6
CONTINUOUS
 62
   215
 10
1.089955
 20
3.625781
 30
0.0
 11
1.092945
 21
3.628646
 31
0.0
  0
LINE
  8
1
  6
CONTINUOUS
 62
   215
 10
1.141778
 20
3.677604
 30
0.0
 11
1.144768
 21
3.680604
 31
0.0
  0
LINE
  8
1
  6
CONTINUOUS
 62
   215
 10
1.193726
 20
3.729427
 30
0.0
 11
1.196591
 21
3.732427
 31
0.0
  0
LINE
  8
1
  6
CONTINUOUS
 62
   215
 10
0.960268
 20
3.599875
 30
0.0
 11
0.963257
 21
3.602739
 31
0.0
  0
LINE
  8
1
  6
CONTINUOUS
 62
   215
 10
1.012216
 20
3.651698
 30
0.0
 11
1.01508
 21
3.654562
 31
0.0
  0
LINE
  8
1
  6
CONTINUOUS
 62
   215
 10
1.064039
 20
3.703521
 30
0.0
 11
1.067039
 21
3.70651
 31
0.0
  0
LINE
  8
1
  6
CONTINUOUS
 62
   215
 10
1.115862
 20
3.755344
 30
0.0
 11
1.118862
 21
3.758333
 31
0.0
  0
LINE
  8
1
  6
CONTINUOUS
 62
   215
 10
0.882528
 20
3.625781
 30
0.0
 11
0.885528
 21
3.628646
 31
0.0
  0
LINE
  8
1
  6
CONTINUOUS
 62
   215
 10
0.934351
 20
3.677604
 30
0.0
 11
0.937351
 21
3.680604
 31
0.0
  0
LINE
  8
1
  6
CONTINUOUS
 62
   215
 10
0.986309
 20
3.729427
 30
0.0
 11
0.989174
 21
3.732427
 31
0.0
  0
LINE
  8
1
  6
CONTINUOUS
 62
   215
 10
0.752976
 20
3.599875
 30
0.0
 11
0.755841
 21
3.602739
 31
0.0
  0
LINE
  8
1
  6
CONTINUOUS
 62
   215
 10
0.804799
 20
3.651698
 30
0.0
 11
0.807664
 21
3.654562
 31
0.0
  0
LINE
  8
1
  6
CONTINUOUS
 62
   215
 10
0.856622
 20
3.703521
 30
0.0
 11
0.859612
 21
3.70651
 31
0.0
  0
LINE
  8
1
  6
CONTINUOUS
 62
   215
 10
0.908445
 20
3.755344
 30
0.0
 11
0.911434
 21
3.758333
 31
0.0
  0
LINE
  8
1
  6
CONTINUOUS
 62
   215
 10
0.675112
 20
3.625781
 30
0.0
 11
0.678101
 21
3.628646
 31
0.0
  0
LINE
  8
1
  6
CONTINUOUS
 62
   215
 10
0.726934
 20
3.677604
 30
0.0
 11
0.729924
 21
3.680604
 31
0.0
  0
LINE
  8
1
  6
CONTINUOUS
 62
   215
 10
0.778882
 20
3.729427
 30
0.0
 11
0.781747
 21
3.732427
 31
0.0
  0
LINE
  8
1
  6
CONTINUOUS
 62
   215
 10
0.545549
 20
3.599875
 30
0.0
 11
0.548414
 21
3.602739
 31
0.0
  0
LINE
  8
1
  6
CONTINUOUS
 62
   215
 10
0.597372
 20
3.651698
 30
0.0
 11
0.600237
 21
3.654562
 31
0.0
  0
LINE
  8
1
  6
CONTINUOUS
 62
   215
 10
0.649195
 20
3.703521
 30
0.0
 11
0.652195
 21
3.70651
 31
0.0
  0
LINE
  8
1
  6
CONTINUOUS
 62
   215
 10
0.701018
 20
3.755344
 30
0.0
 11
0.704018
 21
3.758333
 31
0.0
  0
LINE
  8
1
  6
CONTINUOUS
 62
   215
 10
0.467685
 20
3.625781
 30
0.0
 11
0.470685
 21
3.628646
 31
0.0
  0
LINE
  8
1
  6
CONTINUOUS
 62
   215
 10
0.519507
 20
3.677604
 30
0.0
 11
0.522507
 21
3.680604
 31
0.0
  0
LINE
  8
1
  6
CONTINUOUS
 62
   215
 10
0.571466
 20
3.729427
 30
0.0
 11
0.57433
 21
3.732427
 31
0.0
  0
LINE
  8
1
  6
CONTINUOUS
 62
   215
 10
0.389955
 20
3.651698
 30
0.0
 11
0.39282
 21
3.654562
 31
0.0
  0
LINE
  8
1
  6
CONTINUOUS
 62
   215
 10
0.441778
 20
3.703521
 30
0.0
 11
0.444768
 21
3.70651
 31
0.0
  0
LINE
  8
1
  6
CONTINUOUS
 62
   215
 10
0.493601
 20
3.755344
 30
0.0
 11
0.496591
 21
3.758333
 31
0.0
  0
POLYLINE
  8
1
  6
CONTINUOUS
 62
   252
 66
     1
 10
0.0
 20
0.0
 30
0.0
  0
VERTEX
  8
1
  6
CONTINUOUS
 62
   252
 10
2.129278
 20
4.689198
 30
0.0
  0
VERTEX
  8
1
  6
CONTINUOUS
 62
   252
 10
4.016903
 20
4.689198
 30
0.0
  0
SEQEND
  8
1
  6
CONTINUOUS
 62
   252
  0
POLYLINE
  8
1
  6
CONTINUOUS
 62
   252
 66
     1
 10
0.0
 20
0.0
 30
0.0
  0
VERTEX
  8
1
  6
CONTINUOUS
 62
   252
 10
3.637476
 20
5.065364
 30
0.0
  0
VERTEX
  8
1
  6
CONTINUOUS
 62
   252
 10
2.50883
 20
5.065364
 30
0.0
  0
SEQEND
  8
1
  6
CONTINUOUS
 62
   252
  0
POLYLINE
  8
1
  6
CONTINUOUS
 62
   252
 66
     1
 10
0.0
 20
0.0
 30
0.0
  0
VERTEX
  8
1
  6
CONTINUOUS
 62
   252
 10
2.509729
 20
5.065162
 30
0.0
 42
0.413954
  0
VERTEX
  8
1
  6
CONTINUOUS
 62
   252
 10
2.13357
 20
4.689114
 30
0.0
  0
SEQEND
  8
1
  6
CONTINUOUS
 62
   252
  0
POLYLINE
  8
1
  6
CONTINUOUS
 62
   252
 66
     1
 10
0.0
 20
0.0
 30
0.0
  0
VERTEX
  8
1
  6
CONTINUOUS
 62
   252
 10
4.012903
 20
4.688896
 30
0.0
 42
0.414303
  0
VERTEX
  8
1
  6
CONTINUOUS
 62
   252
 10
3.636523
 20
5.065161
 30
0.0
  0
SEQEND
  8
1
  6
CONTINUOUS
 62
   252
  0
POLYLINE
  8
1
  6
CONTINUOUS
 62
    92
 66
     1
 10
0.0
 20
0.0
 30
0.0
  0
VERTEX
  8
1
  6
CONTINUOUS
 62
    92
 10
2.702976
 20
5.155208
 30
0.0
  0
VERTEX
  8
1
  6
CONTINUOUS
 62
    92
 10
3.443205
 20
5.155208
 30
0.0
  0
SEQEND
  8
1
  6
CONTINUOUS
 62
    92
  0
POLYLINE
  8
1
  6
CONTINUOUS
 62
   252
 66
     1
 10
0.0
 20
0.0
 30
0.0
  0
VERTEX
  8
1
  6
CONTINUOUS
 62
   252
 10
2.23058
 20
4.309635
 30
0.0
  0
VERTEX
  8
1
  6
CONTINUOUS
 62
   252
 10
2.23058
 20
3.799614
 30
0.0
  0
SEQEND
  8
1
  6
CONTINUOUS
 62
   252
  0
POLYLINE
  8
1
  6
CONTINUOUS
 62
    92
 66
     1
 10
0.0
 20
0.0
 30
0.0
210
0.0
220
0.0
230
0.999999999630006
  0
VERTEX
  8
1
  6
CONTINUOUS
 62
    92
 10
2.702846
 20
5.155809
 30
0.0
 42
0.414214
  0
VERTEX
  8
1
  6
CONTINUOUS
 62
    92
 10
2.612208
 20
5.065171
 30
0.0
  0
SEQEND
  8
1
  6
CONTINUOUS
 62
    92
  0
POLYLINE
  8
1
  6
CONTINUOUS
 62
    92
 66
     1
 10
0.0
 20
0.0
 30
0.0
210
0.0
220
0.0
230
0.999999999630006
  0
VERTEX
  8
1
  6
CONTINUOUS
 62
    92
 10
3.443628
 20
5.155809
 30
0.0
 42
-0.414214
  0
VERTEX
  8
1
  6
CONTINUOUS
 62
    92
 10
3.534266
 20
5.065171
 30
0.0
  0
SEQEND
  8
1
  6
CONTINUOUS
 62
    92
  0
POLYLINE
  8
1
  6
CONTINUOUS
 62
   252
 66
     1
 10
0.0
 20
0.0
 30
0.0
210
0.0
220
0.0
230
0.9999999997250989
  0
VERTEX
  8
1
  6
CONTINUOUS
 62
   252
 10
2.509811
 20
4.502137
 30
0.0
 42
-0.310974
  0
VERTEX
  8
1
  6
CONTINUOUS
 62
   252
 10
2.343527
 20
4.309298
 30
0.0
  0
SEQEND
  8
1
  6
CONTINUOUS
 62
   252
  0
POLYLINE
  8
1
  6
CONTINUOUS
 62
   252
 66
     1
 10
0.0
 20
0.0
 30
0.0
210
0.0
220
0.0
230
1.0000000002150489
  0
VERTEX
  8
1
  6
CONTINUOUS
 62
   252
 10
3.636663
 20
4.502137
 30
0.0
 42
0.370972
  0
VERTEX
  8
1
  6
CONTINUOUS
 62
   252
 10
3.829599
 20
4.315374
 30
0.0
  0
SEQEND
  8
1
  6
CONTINUOUS
 62
   252
  0
POLYLINE
  8
1
  6
CONTINUOUS
 62
     2
 66
     1
 10
0.0
 20
0.0
 30
0.0
  0
VERTEX
  8
1
  6
CONTINUOUS
 62
     2
 10
2.50883
 20
4.501562
 30
0.0
  0
VERTEX
  8
1
  6
CONTINUOUS
 62
     2
 10
3.637476
 20
4.501562
 30
0.0
  0
SEQEND
  8
1
  6
CONTINUOUS
 62
     2
  0
POLYLINE
  8
1
  6
CONTINUOUS
 62
   252
 66
     1
 10
0.0
 20
0.0
 30
0.0
  0
VERTEX
  8
1
  6
CONTINUOUS
 62
   252
 10
2.50883
 20
4.689198
 30
0.0
  0
VERTEX
  8
1
  6
CONTINUOUS
 62
   252
 10
2.50883
 20
4.501562
 30
0.0
  0
SEQEND
  8
1
  6
CONTINUOUS
 62
   252
  0
POLYLINE
  8
1
  6
CONTINUOUS
 62
   252
 66
     1
 10
0.0
 20
0.0
 30
0.0
  0
VERTEX
  8
1
  6
CONTINUOUS
 62
   252
 10
3.637476
 20
4.501562
 30
0.0
  0
VERTEX
  8
1
  6
CONTINUOUS
 62
   252
 10
3.637476
 20
4.689198
 30
0.0
  0
SEQEND
  8
1
  6
CONTINUOUS
 62
   252
  0
POLYLINE
  8
1
  6
CONTINUOUS
 62
   252
 66
     1
 10
0.0
 20
0.0
 30
0.0
  0
VERTEX
  8
1
  6
CONTINUOUS
 62
   252
 10
3.91157
 20
4.309635
 30
0.0
  0
VERTEX
  8
1
  6
CONTINUOUS
 62
   252
 10
2.23058
 20
4.309635
 30
0.0
  0
SEQEND
  8
1
  6
CONTINUOUS
 62
   252
  0
POLYLINE
  8
1
  6
CONTINUOUS
 62
     2
 66
     1
 10
0.0
 20
0.0
 30
0.0
  0
VERTEX
  8
1
  6
CONTINUOUS
 62
     2
 10
2.23058
 20
4.121875
 30
0.0
  0
VERTEX
  8
1
  6
CONTINUOUS
 62
     2
 10
3.91157
 20
4.121875
 30
0.0
  0
SEQEND
  8
1
  6
CONTINUOUS
 62
     2
  0
POLYLINE
  8
1
  6
CONTINUOUS
 62
   252
 66
     1
 10
0.0
 20
0.0
 30
0.0
  0
VERTEX
  8
1
  6
CONTINUOUS
 62
   252
 10
3.91157
 20
4.309635
 30
0.0
  0
VERTEX
  8
1
  6
CONTINUOUS
 62
   252
 10
3.91157
 20
3.799614
 30
0.0
  0
SEQEND
  8
1
  6
CONTINUOUS
 62
   252
  0
POLYLINE
  8
1
  6
CONTINUOUS
 62
    22
 66
     1
 10
0.0
 20
0.0
 30
0.0
  0
VERTEX
  8
1
  6
CONTINUOUS
 62
    22
 10
0.377841
 20
3.769792
 30
0.0
  0
VERTEX
  8
1
  6
CONTINUOUS
 62
    22
 10
0.377841
 20
3.341667
 30
0.0
  0
VERTEX
  8
1
  6
CONTINUOUS
 62
    22
 10
0.47081
 20
3.298312
 30
0.0
  0
VERTEX
  8
1
  6
CONTINUOUS
 62
    22
 10
0.297112
 20
3.261073
 30
0.0
  0
VERTEX
  8
1
  6
CONTINUOUS
 62
    22
 10
0.371591
 20
3.217583
 30
0.0
  0
VERTEX
  8
1
  6
CONTINUOUS
 62
    22
 10
0.372112
 20
2.939583
 30
0.0
  0
SEQEND
  8
1
  6
CONTINUOUS
 62
    22
  0
POLYLINE
  8
1
  6
CONTINUOUS
 62
    22
 66
     1
 10
0.0
 20
0.0
 30
0.0
  0
VERTEX
  8
1
  6
CONTINUOUS
 62
    22
 10
5.085393
 20
3.769792
 30
0.0
  0
VERTEX
  8
1
  6
CONTINUOUS
 62
    22
 10
5.085393
 20
3.341667
 30
0.0
  0
VERTEX
  8
1
  6
CONTINUOUS
 62
    22
 10
5.178361
 20
3.298312
 30
0.0
  0
VERTEX
  8
1
  6
CONTINUOUS
 62
    22
 10
5.004663
 20
3.261073
 30
0.0
  0
VERTEX
  8
1
  6
CONTINUOUS
 62
    22
 10
5.079143
 20
3.217583
 30
0.0
  0
VERTEX
  8
1
  6
CONTINUOUS
 62
    22
 10
5.079663
 20
2.935292
 30
0.0
  0
SEQEND
  8
1
  6
CONTINUOUS
 62
    22
  0
POLYLINE
  8
1
  6
CONTINUOUS
 62
   252
 66
     1
 10
0.0
 20
0.0
 30
0.0
  0
VERTEX
  8
1
  6
CONTINUOUS
 62
   252
 10
2.276674
 20
2.781771
 30
0.0
  0
VERTEX
  8
1
  6
CONTINUOUS
 62
   252
 10
2.576674
 20
2.799479
 30
0.0
  0
VERTEX
  8
1
  6
CONTINUOUS
 62
   252
 10
2.885528
 20
2.781771
 30
0.0
  0
VERTEX
  8
1
  6
CONTINUOUS
 62
   252
 10
3.247372
 20
2.793489
 30
0.0
  0
VERTEX
  8
1
  6
CONTINUOUS
 62
   252
 10
3.591643
 20
2.805344
 30
0.0
  0
VERTEX
  8
1
  6
CONTINUOUS
 62
   252
 10
3.865216
 20
2.778781
 30
0.0
  0
SEQEND
  8
1
  6
CONTINUOUS
 62
   252
  0
POLYLINE
  8
1
  6
CONTINUOUS
 62
   252
 66
     1
 10
0.0
 20
0.0
 30
0.0
  0
VERTEX
  8
1
  6
CONTINUOUS
 62
   252
 10
3.081882
 20
2.78776
 30
0.0
  0
VERTEX
  8
1
  6
CONTINUOUS
 62
   252
 10
3.061049
 20
2.746229
 30
0.0
  0
VERTEX
  8
1
  6
CONTINUOUS
 62
   252
 10
3.079278
 20
2.564583
 30
0.0
  0
VERTEX
  8
1
  6
CONTINUOUS
 62
   252
 10
3.089695
 20
2.458073
 30
0.0
  0
VERTEX
  8
1
  6
CONTINUOUS
 62
   252
 10
3.048153
 20
2.266021
 30
0.0
  0
VERTEX
  8
1
  6
CONTINUOUS
 62
   252
 10
3.081882
 20
1.993365
 30
0.0
  0
VERTEX
  8
1
  6
CONTINUOUS
 62
   252
 10
3.058445
 20
1.84024
 30
0.0
  0
VERTEX
  8
1
  6
CONTINUOUS
 62
   252
 10
3.074455
 20
1.629687
 30
0.0
  0
VERTEX
  8
1
  6
CONTINUOUS
 62
   252
 10
3.068466
 20
1.514458
 30
0.0
  0
SEQEND
  8
1
  6
CONTINUOUS
 62
   252
  0
POLYLINE
  8
1
  6
CONTINUOUS
 62
    92
 66
     1
 10
0.0
 20
0.0
 30
0.0
210
0.0
220
0.0
230
0.9999999999999999
  0
VERTEX
  8
1
  6
CONTINUOUS
 62
    92
 10
2.230445
 20
3.400781
 30
0.0
  0
VERTEX
  8
1
  6
CONTINUOUS
 62
    92
 10
2.54907
 20
3.359896
 30
0.0
  0
VERTEX
  8
1
  6
CONTINUOUS
 62
    92
 10
2.776674
 20
3.387239
 30
0.0
  0
VERTEX
  8
1
  6
CONTINUOUS
 62
    92
 10
2.976934
 20
3.391667
 30
0.0
  0
VERTEX
  8
1
  6
CONTINUOUS
 62
    92
 10
3.295549
 20
3.382687
 30
0.0
  0
VERTEX
  8
1
  6
CONTINUOUS
 62
    92
 10
3.418341
 20
3.341667
 30
0.0
  0
VERTEX
  8
1
  6
CONTINUOUS
 62
    92
 10
3.691518
 20
3.378125
 30
0.0
  0
VERTEX
  8
1
  6
CONTINUOUS
 62
    92
 10
3.910007
 20
3.378125
 30
0.0
  0
SEQEND
  8
1
  6
CONTINUOUS
 62
    92
  0
INSERT
  8
1
  6
CONTINUOUS
 62
    92
  2
GVLV
 10
1.093341
 20
1.945312
 30
0.0
 41
1.041667
 42
1.041667
 43
1.041667
  0
INSERT
  8
1
  6
CONTINUOUS
 62
    92
  2
GVLV
 10
0.995289
 20
2.691802
 30
0.0
 41
1.041667
 42
1.041667
 43
1.041667
  0
INSERT
  8
1
  6
CONTINUOUS
 62
    92
  2
UNION
 10
1.543987
 20
1.938281
 30
0.0
 41
1.041667
 42
1.041667
 50
180.0
 43
1.041667
  0
INSERT
  8
1
  6
CONTINUOUS
 62
    92
  2
UNION
 10
1.989174
 20
2.688677
 30
0.0
 41
1.041667
 42
1.041667
 43
1.041667
  0
INSERT
  8
1
  6
CONTINUOUS
 62
    92
  2
CBVLV
 10
1.440601
 20
2.685552
 30
0.0
 41
1.041667
 42
1.041667
 43
1.041667
  0
POLYLINE
  8
1
  6
CONTINUOUS
 62
    92
 66
     1
 10
0.0
 20
0.0
 30
0.0
210
0.0
220
0.0
230
0.999999999630006
  0
VERTEX
  8
1
  6
CONTINUOUS
 62
    92
 10
2.871726
 20
3.33412
 30
0.0
 42
0.414214
  0
VERTEX
  8
1
  6
CONTINUOUS
 62
    92
 10
2.819643
 20
3.282036
 30
0.0
  0
SEQEND
  8
1
  6
CONTINUOUS
 62
    92
  0
POLYLINE
  8
1
  6
CONTINUOUS
 62
    92
 66
     1
 10
0.0
 20
0.0
 30
0.0
210
0.0
220
0.0
230
0.999999999630006
  0
VERTEX
  8
1
  6
CONTINUOUS
 62
    92
 10
2.871726
 20
3.000526
 30
0.0
 42
-0.414214
  0
VERTEX
  8
1
  6
CONTINUOUS
 62
    92
 10
2.819643
 20
3.052609
 30
0.0
  0
SEQEND
  8
1
  6
CONTINUOUS
 62
    92
  0
POLYLINE
  8
1
  6
CONTINUOUS
 62
    92
 66
     1
 10
0.0
 20
0.0
 30
0.0
  0
VERTEX
  8
1
  6
CONTINUOUS
 62
    92
 10
3.329278
 20
3.052609
 30
0.0
 42
-0.414214
  0
VERTEX
  8
1
  6
CONTINUOUS
 62
    92
 10
3.277195
 20
3.000526
 30
0.0
  0
SEQEND
  8
1
  6
CONTINUOUS
 62
    92
  0
POLYLINE
  8
1
  6
CONTINUOUS
 62
    92
 66
     1
 10
0.0
 20
0.0
 30
0.0
210
0.0
220
0.0
230
0.999999999630006
  0
VERTEX
  8
1
  6
CONTINUOUS
 62
    92
 10
3.277195
 20
3.33412
 30
0.0
 42
-0.414214
  0
VERTEX
  8
1
  6
CONTINUOUS
 62
    92
 10
3.329278
 20
3.282036
 30
0.0
  0
SEQEND
  8
1
  6
CONTINUOUS
 62
    92
  0
LINE
  8
1
  6
CONTINUOUS
 62
   215
 10
2.822507
 20
3.299094
 30
0.0
 11
3.326414
 21
3.299094
 31
0.0
  0
LINE
  8
1
  6
CONTINUOUS
 62
   215
 10
2.819643
 20
3.253521
 30
0.0
 11
3.329278
 21
3.253521
 31
0.0
  0
LINE
  8
1
  6
CONTINUOUS
 62
   215
 10
2.819768
 20
3.048312
 30
0.0
 11
3.329143
 21
3.048312
 31
0.0
  0
LINE
  8
1
  6
CONTINUOUS
 62
   215
 10
2.819643
 20
3.089719
 30
0.0
 11
3.329278
 21
3.089719
 31
0.0
  0
POLYLINE
  8
1
  6
CONTINUOUS
 62
     2
 66
     1
 10
0.0
 20
0.0
 30
0.0
 70
     1
 40
0.008333
 41
0.008333
  0
VERTEX
  8
1
  6
CONTINUOUS
 62
     2
 10
3.101163
 20
2.873898
 30
0.0
 42
1.0
  0
VERTEX
  8
1
  6
CONTINUOUS
 62
     2
 10
3.067419
 20
2.873898
 30
0.0
 42
1.0
  0
VERTEX
  8
1
  6
CONTINUOUS
 62
     2
 10
3.067419
 20
2.873898
 30
0.0
 42
1.0
  0
SEQEND
  8
1
  6
CONTINUOUS
 62
     2
  0
CIRCLE
  8
1
  6
CONTINUOUS
 62
   215
 10
2.966257
 20
2.324289
 30
0.0
 40
0.008216
  0
CIRCLE
  8
1
  6
CONTINUOUS
 62
   215
 10
2.887091
 20
2.4627
 30
0.0
 40
0.008216
  0
CIRCLE
  8
1
  6
CONTINUOUS
 62
   215
 10
2.643731
 20
2.462049
 30
0.0
 40
0.008216
  0
CIRCLE
  8
1
  6
CONTINUOUS
 62
   215
 10
2.401544
 20
2.4627
 30
0.0
 40
0.008216
  0
CIRCLE
  8
1
  6
CONTINUOUS
 62
   215
 10
2.482013
 20
2.323898
 30
0.0
 40
0.008216
  0
CIRCLE
  8
1
  6
CONTINUOUS
 62
   215
 10
2.722898
 20
2.323247
 30
0.0
 40
0.008216
  0
POLYLINE
  8
1
  6
CONTINUOUS
 62
    92
 66
     1
 10
0.0
 20
0.0
 30
0.0
210
0.0
220
0.0
230
0.999999999630006
  0
VERTEX
  8
1
  6
CONTINUOUS
 62
    92
 10
2.665997
 20
2.699484
 30
0.0
 42
-0.414214
  0
VERTEX
  8
1
  6
CONTINUOUS
 62
    92
 10
2.68683
 20
2.678651
 30
0.0
  0
SEQEND
  8
1
  6
CONTINUOUS
 62
    92
  0
POLYLINE
  8
1
  6
CONTINUOUS
 62
    92
 66
     1
 10
0.0
 20
0.0
 30
0.0
210
0.0
220
0.0
230
0.999999999630006
  0
VERTEX
  8
1
  6
CONTINUOUS
 62
    92
 10
2.508835
 20
2.699484
 30
0.0
 42
0.414214
  0
VERTEX
  8
1
  6
CONTINUOUS
 62
    92
 10
2.488002
 20
2.678651
 30
0.0
  0
SEQEND
  8
1
  6
CONTINUOUS
 62
    92
  0
POLYLINE
  8
1
  6
CONTINUOUS
 62
    92
 66
     1
 10
0.0
 20
0.0
 30
0.0
210
0.0
220
0.0
230
0.999999999630006
  0
VERTEX
  8
1
  6
CONTINUOUS
 62
    92
 10
2.723809
 20
2.67201
 30
0.0
 42
-0.414214
  0
VERTEX
  8
1
  6
CONTINUOUS
 62
    92
 10
2.755059
 20
2.64076
 30
0.0
  0
SEQEND
  8
1
  6
CONTINUOUS
 62
    92
  0
POLYLINE
  8
1
  6
CONTINUOUS
 62
    92
 66
     1
 10
0.0
 20
0.0
 30
0.0
  0
VERTEX
  8
1
  6
CONTINUOUS
 62
    92
 10
2.755059
 20
2.554953
 30
0.0
 42
-0.414214
  0
VERTEX
  8
1
  6
CONTINUOUS
 62
    92
 10
2.723809
 20
2.523703
 30
0.0
  0
SEQEND
  8
1
  6
CONTINUOUS
 62
    92
  0
POLYLINE
  8
1
  6
CONTINUOUS
 62
    92
 66
     1
 10
0.0
 20
0.0
 30
0.0
210
0.0
220
0.0
230
0.999999999630006
  0
VERTEX
  8
1
  6
CONTINUOUS
 62
    92
 10
2.443471
 20
2.523703
 30
0.0
 42
-0.414214
  0
VERTEX
  8
1
  6
CONTINUOUS
 62
    92
 10
2.412221
 20
2.554953
 30
0.0
  0
SEQEND
  8
1
  6
CONTINUOUS
 62
    92
  0
POLYLINE
  8
1
  6
CONTINUOUS
 62
    92
 66
     1
 10
0.0
 20
0.0
 30
0.0
  0
VERTEX
  8
1
  6
CONTINUOUS
 62
    92
 10
2.412221
 20
2.64076
 30
0.0
 42
-0.414214
  0
VERTEX
  8
1
  6
CONTINUOUS
 62
    92
 10
2.443471
 20
2.67201
 30
0.0
  0
SEQEND
  8
1
  6
CONTINUOUS
 62
    92
  0
CIRCLE
  8
1
  6
CONTINUOUS
 62
   215
 10
3.149656
 20
2.084641
 30
0.0
 40
0.033814
  0
CIRCLE
  8
1
  6
CONTINUOUS
 62
   215
 10
3.24308
 20
2.084641
 30
0.0
 40
0.033749
  0
CIRCLE
  8
1
  6
CONTINUOUS
 62
   215
 10
3.33657
 20
2.084641
 30
0.0
 40
0.033749
  0
CIRCLE
  8
1
  6
CONTINUOUS
 62
   215
 10
3.149656
 20
2.001568
 30
0.0
 40
0.033814
  0
CIRCLE
  8
1
  6
CONTINUOUS
 62
   215
 10
3.24308
 20
2.001568
 30
0.0
 40
0.033749
  0
CIRCLE
  8
1
  6
CONTINUOUS
 62
   215
 10
3.33657
 20
2.001568
 30
0.0
 40
0.033749
  0
CIRCLE
  8
1
  6
CONTINUOUS
 62
   215
 10
3.150958
 20
1.913417
 30
0.0
 40
0.033814
  0
CIRCLE
  8
1
  6
CONTINUOUS
 62
   215
 10
3.244382
 20
1.913417
 30
0.0
 40
0.033749
  0
CIRCLE
  8
1
  6
CONTINUOUS
 62
   215
 10
3.337872
 20
1.913417
 30
0.0
 40
0.033749
  0
CIRCLE
  8
1
  6
CONTINUOUS
 62
   215
 10
3.603953
 20
2.084641
 30
0.0
 40
0.033814
  0
CIRCLE
  8
1
  6
CONTINUOUS
 62
   215
 10
3.697377
 20
2.084641
 30
0.0
 40
0.033749
  0
CIRCLE
  8
1
  6
CONTINUOUS
 62
   215
 10
3.790867
 20
2.084641
 30
0.0
 40
0.033749
  0
CIRCLE
  8
1
  6
CONTINUOUS
 62
   215
 10
3.603953
 20
2.001568
 30
0.0
 40
0.033814
  0
CIRCLE
  8
1
  6
CONTINUOUS
 62
   215
 10
3.697377
 20
2.001568
 30
0.0
 40
0.033749
  0
CIRCLE
  8
1
  6
CONTINUOUS
 62
   215
 10
3.790867
 20
2.001568
 30
0.0
 40
0.033749
  0
CIRCLE
  8
1
  6
CONTINUOUS
 62
   215
 10
3.605255
 20
1.913417
 30
0.0
 40
0.033814
  0
CIRCLE
  8
1
  6
CONTINUOUS
 62
   215
 10
3.698679
 20
1.913417
 30
0.0
 40
0.033749
  0
CIRCLE
  8
1
  6
CONTINUOUS
 62
   215
 10
3.792169
 20
1.913417
 30
0.0
 40
0.033749
  0
POLYLINE
  8
1
  6
CONTINUOUS
 62
     2
 66
     1
 10
0.0
 20
0.0
 30
0.0
 70
     1
 40
0.008333
 41
0.008333
  0
VERTEX
  8
1
  6
CONTINUOUS
 62
     2
 10
3.258698
 20
2.304628
 30
0.0
 42
1.0
  0
VERTEX
  8
1
  6
CONTINUOUS
 62
     2
 10
3.224858
 20
2.304628
 30
0.0
 42
1.0
  0
VERTEX
  8
1
  6
CONTINUOUS
 62
     2
 10
3.224858
 20
2.304628
 30
0.0
 42
1.0
  0
SEQEND
  8
1
  6
CONTINUOUS
 62
     2
  0
POLYLINE
  8
1
  6
CONTINUOUS
 62
     2
 66
     1
 10
0.0
 20
0.0
 30
0.0
 70
     1
 40
0.008333
 41
0.008333
  0
VERTEX
  8
1
  6
CONTINUOUS
 62
     2
 10
3.484609
 20
2.304628
 30
0.0
 42
1.0
  0
VERTEX
  8
1
  6
CONTINUOUS
 62
     2
 10
3.45077
 20
2.304628
 30
0.0
 42
1.0
  0
VERTEX
  8
1
  6
CONTINUOUS
 62
     2
 10
3.45077
 20
2.304628
 30
0.0
 42
1.0
  0
SEQEND
  8
1
  6
CONTINUOUS
 62
     2
  0
POLYLINE
  8
1
  6
CONTINUOUS
 62
     2
 66
     1
 10
0.0
 20
0.0
 30
0.0
 70
     1
 40
0.008333
 41
0.008333
  0
VERTEX
  8
1
  6
CONTINUOUS
 62
     2
 10
3.709088
 20
2.304628
 30
0.0
 42
1.0
  0
VERTEX
  8
1
  6
CONTINUOUS
 62
     2
 10
3.675249
 20
2.304628
 30
0.0
 42
1.0
  0
VERTEX
  8
1
  6
CONTINUOUS
 62
     2
 10
3.675249
 20
2.304628
 30
0.0
 42
1.0
  0
SEQEND
  8
1
  6
CONTINUOUS
 62
     2
  0
CIRCLE
  8
1
  6
CONTINUOUS
 62
   215
 10
3.149638
 20
2.084641
 30
0.0
 40
0.024651
  0
CIRCLE
  8
1
  6
CONTINUOUS
 62
   215
 10
3.243128
 20
2.084641
 30
0.0
 40
0.024651
  0
CIRCLE
  8
1
  6
CONTINUOUS
 62
   215
 10
3.336617
 20
2.084641
 30
0.0
 40
0.024651
  0
CIRCLE
  8
1
  6
CONTINUOUS
 62
   215
 10
3.149638
 20
2.002088
 30
0.0
 40
0.024651
  0
CIRCLE
  8
1
  6
CONTINUOUS
 62
   215
 10
3.243128
 20
2.002088
 30
0.0
 40
0.024651
  0
CIRCLE
  8
1
  6
CONTINUOUS
 62
   215
 10
3.336617
 20
2.002088
 30
0.0
 40
0.024651
  0
CIRCLE
  8
1
  6
CONTINUOUS
 62
   215
 10
3.15107
 20
1.914328
 30
0.0
 40
0.024651
  0
CIRCLE
  8
1
  6
CONTINUOUS
 62
   215
 10
3.24456
 20
1.914328
 30
0.0
 40
0.024651
  0
CIRCLE
  8
1
  6
CONTINUOUS
 62
   215
 10
3.33805
 20
1.914328
 30
0.0
 40
0.024651
  0
CIRCLE
  8
1
  6
CONTINUOUS
 62
   215
 10
3.604326
 20
2.085422
 30
0.0
 40
0.024651
  0
CIRCLE
  8
1
  6
CONTINUOUS
 62
   215
 10
3.697815
 20
2.085422
 30
0.0
 40
0.024651
  0
CIRCLE
  8
1
  6
CONTINUOUS
 62
   215
 10
3.791305
 20
2.085422
 30
0.0
 40
0.024651
  0
CIRCLE
  8
1
  6
CONTINUOUS
 62
   215
 10
3.604326
 20
2.00287
 30
0.0
 40
0.024651
  0
CIRCLE
  8
1
  6
CONTINUOUS
 62
   215
 10
3.697815
 20
2.00287
 30
0.0
 40
0.024651
  0
CIRCLE
  8
1
  6
CONTINUOUS
 62
   215
 10
3.791305
 20
2.00287
 30
0.0
 40
0.024651
  0
CIRCLE
  8
1
  6
CONTINUOUS
 62
   215
 10
3.605758
 20
1.915109
 30
0.0
 40
0.024651
  0
CIRCLE
  8
1
  6
CONTINUOUS
 62
   215
 10
3.699247
 20
1.915109
 30
0.0
 40
0.024651
  0
CIRCLE
  8
1
  6
CONTINUOUS
 62
   215
 10
3.792737
 20
1.915109
 30
0.0
 40
0.024651
  0
POLYLINE
  8
LEADER
  6
CONTINUOUS
 66
     1
 10
0.0
 20
0.0
 30
0.0
  0
VERTEX
  8
LEADER
  6
CONTINUOUS
 10
4.111049
 20
5.412896
 30
0.0
  0
VERTEX
  8
LEADER
  6
CONTINUOUS
 10
4.006101
 20
5.412896
 30
0.0
  0
VERTEX
  8
LEADER
  6
CONTINUOUS
 10
3.499591
 20
5.154166
 30
0.0
  0
SEQEND
  8
LEADER
  6
CONTINUOUS
  0
POLYLINE
  8
LEADER
  6
CONTINUOUS
 66
     1
 10
0.0
 20
0.0
 30
0.0
210
0.0
220
0.0
230
0.9999999999999999
  0
VERTEX
  8
LEADER
  6
CONTINUOUS
 10
1.067424
 20
4.274875
 30
0.0
  0
VERTEX
  8
LEADER
  6
CONTINUOUS
 10
1.191518
 20
4.274875
 30
0.0
  0
VERTEX
  8
LEADER
  6
CONTINUOUS
 10
1.429924
 20
3.416406
 30
0.0
  0
SEQEND
  8
LEADER
  6
CONTINUOUS
  0
POLYLINE
  8
LEADER
  6
CONTINUOUS
 66
     1
 10
0.0
 20
0.0
 30
0.0
  0
VERTEX
  8
LEADER
  6
CONTINUOUS
 10
1.344122
 20
1.356125
 30
0.0
  0
VERTEX
  8
LEADER
  6
CONTINUOUS
 10
1.229664
 20
1.356125
 30
0.0
  0
VERTEX
  8
LEADER
  6
CONTINUOUS
 10
1.08657
 20
1.899875
 30
0.0
  0
SEQEND
  8
LEADER
  6
CONTINUOUS
  0
POLYLINE
  8
LEADER
  6
CONTINUOUS
 66
     1
 10
0.0
 20
0.0
 30
0.0
210
0.0
220
0.0
230
0.9999999999999999
  0
VERTEX
  8
LEADER
  6
CONTINUOUS
 10
4.539559
 20
2.605604
 30
0.0
  0
VERTEX
  8
LEADER
  6
CONTINUOUS
 10
4.425111
 20
2.605604
 30
0.0
  0
VERTEX
  8
LEADER
  6
CONTINUOUS
 10
4.189695
 20
1.797531
 30
0.0
  0
SEQEND
  8
LEADER
  6
CONTINUOUS
  0
INSERT
  8
LEADER
  6
CONTINUOUS
  2
SOLARR
 10
4.189695
 20
1.797531
 30
0.0
 41
0.018749
 42
0.018749
 50
253.758959
 43
1.041667
  0
INSERT
  8
LEADER
  6
CONTINUOUS
  2
SOLARR
 10
1.429924
 20
3.416406
 30
0.0
 41
0.018752
 42
0.018752
 50
285.513639
 43
1.041667
  0
INSERT
  8
LEADER
  6
CONTINUOUS
  2
SOLARR
 10
1.08657
 20
1.899875
 30
0.0
 41
0.018749
 42
0.018749
 50
104.74809
 43
1.041667
  0
POLYLINE
  8
1
  6
CONTINUOUS
 62
    92
 66
     1
 10
0.0
 20
0.0
 30
0.0
  0
VERTEX
  8
1
  6
CONTINUOUS
 62
    92
 10
2.500893
 20
4.459375
 30
0.0
  0
VERTEX
  8
1
  6
CONTINUOUS
 62
    92
 10
2.441518
 20
4.459375
 30
0.0
  0
VERTEX
  8
1
  6
CONTINUOUS
 62
    92
 10
2.441518
 20
4.421354
 30
0.0
  0
VERTEX
  8
1
  6
CONTINUOUS
 62
    92
 10
2.485007
 20
4.421354
 30
0.0
  0
SEQEND
  8
1
  6
CONTINUOUS
 62
    92
  0
POLYLINE
  8
1
  6
CONTINUOUS
 62
    92
 66
     1
 10
0.0
 20
0.0
 30
0.0
  0
VERTEX
  8
1
  6
CONTINUOUS
 62
    92
 10
3.644507
 20
4.459375
 30
0.0
  0
VERTEX
  8
1
  6
CONTINUOUS
 62
    92
 10
3.703882
 20
4.459375
 30
0.0
  0
VERTEX
  8
1
  6
CONTINUOUS
 62
    92
 10
3.703882
 20
4.421354
 30
0.0
  0
VERTEX
  8
1
  6
CONTINUOUS
 62
    92
 10
3.660393
 20
4.421354
 30
0.0
  0
SEQEND
  8
1
  6
CONTINUOUS
 62
    92
  0
POLYLINE
  8
1
  6
CONTINUOUS
 62
    92
 66
     1
 10
0.0
 20
0.0
 30
0.0
  0
VERTEX
  8
1
  6
CONTINUOUS
 62
    92
 10
3.641257
 20
4.459375
 30
0.0
  0
VERTEX
  8
1
  6
CONTINUOUS
 62
    92
 10
3.700632
 20
4.459375
 30
0.0
  0
VERTEX
  8
1
  6
CONTINUOUS
 62
    92
 10
3.700632
 20
4.421354
 30
0.0
  0
VERTEX
  8
1
  6
CONTINUOUS
 62
    92
 10
3.657143
 20
4.421354
 30
0.0
  0
SEQEND
  8
1
  6
CONTINUOUS
 62
    92
  0
INSERT
  8
1
  6
CONTINUOUS
 62
    92
  2
GVLV
 10
1.101414
 20
3.240104
 30
0.0
 41
0.78125
 42
0.78125
 50
90.0
 43
1.041667
  0
TEXT
  8
LEADER-TEXT
  6
CONTINUOUS
 10
-0.017857
 20
2.338156
 30
0.0
 40
0.125
  1
CALIBRATED
  7
ROMANS
  0
TEXT
  8
LEADER-TEXT
  6
CONTINUOUS
 10
-0.023722
 20
2.150656
 30
0.0
 40
0.125
  1
BALANCE VALVE
  7
ROMANS
  0
POLYLINE
  8
LEADER
  6
CONTINUOUS
 66
     1
 10
0.0
 20
0.0
 30
0.0
  0
VERTEX
  8
LEADER
  6
CONTINUOUS
 10
1.60232
 20
2.204562
 30
0.0
  0
VERTEX
  8
LEADER
  6
CONTINUOUS
 10
1.707268
 20
2.204562
 30
0.0
  0
VERTEX
  8
LEADER
  6
CONTINUOUS
 10
1.491643
 20
2.564198
 30
0.0
  0
SEQEND
  8
LEADER
  6
CONTINUOUS
  0
INSERT
  8
LEADER
  6
CONTINUOUS
  2
SOLARR
 10
1.491643
 20
2.564198
 30
0.0
 41
0.01875
 42
0.01875
 50
120.950741
 43
1.041667
  0
TEXT
  8
LEADER-TEXT
  6
CONTINUOUS
 10
0.069903
 20
4.225135
 30
0.0
 40
0.125
  1
AIR VENT
  7
ROMANS
  0
TEXT
  8
LEADER-TEXT
  6
CONTINUOUS
 10
0.04008
 20
4.412635
 30
0.0
 40
0.125
  1
1/4" MANUAL
  7
ROMANS
  0
TEXT
  8
LEADER-TEXT
  6
CONTINUOUS
 10
4.190216
 20
5.352344
 30
0.0
 40
0.125
  1
OUTSIDE AIR
  7
ROMANS
  0
TEXT
  8
LEADER-TEXT
  6
CONTINUOUS
 10
4.202059
 20
5.164844
 30
0.0
 40
0.125
  1
VENT COMPLETE
  7
ROMANS
 11
0.0
 21
0.0
 31
0.0
  0
TEXT
  8
LEADER-TEXT
  6
CONTINUOUS
 10
4.196205
 20
4.977344
 30
0.0
 40
0.125
  1
WITH BIRDSCREEN
  7
ROMANS
 11
0.0
 21
0.0
 31
0.0
  0
TEXT
  8
LEADER-TEXT
  6
CONTINUOUS
 10
0.871726
 20
5.026958
 30
0.0
 40
0.125
  1
GALV. CURB
  7
ROMANS
  0
TEXT
  8
LEADER-TEXT
  6
CONTINUOUS
 10
0.871726
 20
4.839458
 30
0.0
 40
0.125
  1
CAP
  7
ROMANS
  0
TEXT
  8
LEADER-TEXT
  6
CONTINUOUS
 10
4.441778
 20
4.562635
 30
0.0
 40
0.125
  1
FOR FLASHING AND
  7
ROMANS
 11
0.0
 21
0.0
 31
0.0
  0
TEXT
  8
LEADER-TEXT
  6
CONTINUOUS
 10
4.441778
 20
4.375135
 30
0.0
 40
0.125
  1
ROOF DETAILS SEE
  7
ROMANS
 11
0.0
 21
0.0
 31
0.0
  0
TEXT
  8
LEADER-TEXT
  6
CONTINUOUS
 10
4.459486
 20
4.187635
 30
0.0
 40
0.125
  1
ARCHITECTURAL DWGS.
  7
ROMANS
 11
0.0
 21
0.0
 31
0.0
  0
POLYLINE
  8
LEADER
  6
CONTINUOUS
 66
     1
 10
0.0
 20
0.0
 30
0.0
  0
VERTEX
  8
LEADER
  6
CONTINUOUS
 10
1.287216
 20
4.890364
 30
0.0
  0
VERTEX
  8
LEADER
  6
CONTINUOUS
 10
1.411309
 20
4.890364
 30
0.0
  0
VERTEX
  8
LEADER
  6
CONTINUOUS
 10
2.23058
 20
4.309635
 30
0.0
  0
SEQEND
  8
LEADER
  6
CONTINUOUS
  0
POLYLINE
  8
LEADER
  6
CONTINUOUS
 66
     1
 10
0.0
 20
0.0
 30
0.0
  0
VERTEX
  8
LEADER
  6
CONTINUOUS
 10
4.396851
 20
4.621614
 30
0.0
  0
VERTEX
  8
LEADER
  6
CONTINUOUS
 10
4.291903
 20
4.621614
 30
0.0
  0
VERTEX
  8
LEADER
  6
CONTINUOUS
 10
4.04907
 20
3.813281
 30
0.0
  0
SEQEND
  8
LEADER
  6
CONTINUOUS
  0
INSERT
  8
LEADER
  6
CONTINUOUS
  2
SOLARR
 10
4.04907
 20
3.813281
 30
0.0
 41
0.01875
 42
0.01875
 50
253.280879
 43
1.041667
  0
INSERT
  8
LEADER
  6
CONTINUOUS
  2
SOLARR
 10
3.499591
 20
5.154166
 30
0.0
 41
0.018748
 42
0.018748
 50
207.055653
 43
1.041667
  0
INSERT
  8
LEADER
  6
CONTINUOUS
  2
SOLARR
 10
2.23058
 20
4.309635
 30
0.0
 41
0.018751
 42
0.018751
 50
324.677216
 43
1.041667
  0
TEXT
  8
TITLE
  6
CONTINUOUS
 10
3.266257
 20
0.0
 30
0.0
 40
0.125
  1
N.T.S.
  7
ROMANS
 72
     1
 11
3.617632
 21
0.0
 31
0.0
  0
POLYLINE
  8
1
  6
CONTINUOUS
 62
    92
 66
     1
 10
0.0
 20
0.0
 30
0.0
  0
VERTEX
  8
1
  6
CONTINUOUS
 62
    92
 10
0.465862
 20
2.685937
 30
0.0
  0
VERTEX
  8
1
  6
CONTINUOUS
 62
    92
 10
0.465862
 20
2.685937
 30
0.0
  0
SEQEND
  8
1
  6
CONTINUOUS
 62
    92
  0
POLYLINE
  8
1
  6
CONTINUOUS
 62
    92
 66
     1
 10
0.0
 20
0.0
 30
0.0
  0
VERTEX
  8
1
  6
CONTINUOUS
 62
    92
 10
0.465862
 20
1.942062
 30
0.0
  0
VERTEX
  8
1
  6
CONTINUOUS
 62
    92
 10
0.465862
 20
1.942062
 30
0.0
  0
SEQEND
  8
1
  6
CONTINUOUS
 62
    92
  0
LINE
  8
1
  6
CONTINUOUS
 62
    92
 10
0.460263
 20
1.829562
 30
0.0
 11
0.442662
 21
1.854195
 31
0.0
  0
LINE
  8
1
  6
CONTINUOUS
 62
    92
 10
0.442662
 20
1.854195
 30
0.0
 11
0.437483
 21
1.866803
 31
0.0
  0
LINE
  8
1
  6
CONTINUOUS
 62
    92
 10
0.437483
 20
1.866803
 30
0.0
 11
0.436931
 21
1.879232
 31
0.0
  0
LINE
  8
1
  6
CONTINUOUS
 62
    92
 10
0.436931
 20
1.879232
 30
0.0
 11
0.438908
 21
1.885292
 31
0.0
  0
LINE
  8
1
  6
CONTINUOUS
 62
    92
 10
0.438908
 20
1.885292
 30
0.0
 11
0.464429
 21
1.939068
 31
0.0
  0
LINE
  8
1
  6
CONTINUOUS
 62
    92
 10
0.464429
 20
1.939068
 30
0.0
 11
0.48995
 21
1.992974
 31
0.0
  0
LINE
  8
1
  6
CONTINUOUS
 62
    92
 10
0.48995
 20
1.992974
 30
0.0
 11
0.491921
 21
1.99902
 31
0.0
  0
LINE
  8
1
  6
CONTINUOUS
 62
    92
 10
0.491921
 20
1.99902
 30
0.0
 11
0.491384
 21
2.011421
 31
0.0
  0
LINE
  8
1
  6
CONTINUOUS
 62
    92
 10
0.491384
 20
2.011421
 30
0.0
 11
0.486246
 21
2.024
 31
0.0
  0
LINE
  8
1
  6
CONTINUOUS
 62
    92
 10
0.486246
 20
2.024
 30
0.0
 11
0.468726
 21
2.048573
 31
0.0
  0
LINE
  8
1
  6
CONTINUOUS
 62
    92
 10
0.460263
 20
2.573437
 30
0.0
 11
0.442662
 21
2.59807
 31
0.0
  0
LINE
  8
1
  6
CONTINUOUS
 62
    92
 10
0.442662
 20
2.59807
 30
0.0
 11
0.437483
 21
2.610678
 31
0.0
  0
LINE
  8
1
  6
CONTINUOUS
 62
    92
 10
0.437483
 20
2.610678
 30
0.0
 11
0.436931
 21
2.623107
 31
0.0
  0
LINE
  8
1
  6
CONTINUOUS
 62
    92
 10
0.436931
 20
2.623107
 30
0.0
 11
0.438908
 21
2.629167
 31
0.0
  0
LINE
  8
1
  6
CONTINUOUS
 62
    92
 10
0.438908
 20
2.629167
 30
0.0
 11
0.464429
 21
2.682943
 31
0.0
  0
LINE
  8
1
  6
CONTINUOUS
 62
    92
 10
0.464429
 20
2.682943
 30
0.0
 11
0.48995
 21
2.736849
 31
0.0
  0
LINE
  8
1
  6
CONTINUOUS
 62
    92
 10
0.48995
 20
2.736849
 30
0.0
 11
0.491921
 21
2.742895
 31
0.0
  0
LINE
  8
1
  6
CONTINUOUS
 62
    92
 10
0.491921
 20
2.742895
 30
0.0
 11
0.491384
 21
2.755296
 31
0.0
  0
LINE
  8
1
  6
CONTINUOUS
 62
    92
 10
0.491384
 20
2.755296
 30
0.0
 11
0.486246
 21
2.767875
 31
0.0
  0
LINE
  8
1
  6
CONTINUOUS
 62
    92
 10
0.486246
 20
2.767875
 30
0.0
 11
0.468726
 21
2.792448
 31
0.0
  0
TEXT
  8
TITLE
  6
CONTINUOUS
 10
0.325377
 20
0.277286
 30
0.001935
 40
0.249829
  1
%%uTYPICAL MAKE-UP AIR UNIT DETAIL%%u
  7
ROMANS
 72
     1
 11
3.679329
 21
0.277286
 31
0.001935
  0
ENDSEC
  0
EOF
