  0
SECTION
  2
HEADER
  9
$ACADVER
  1
AC1012
  9
$DWGCODEPAGE
  3
ansi_1252
  9
$INSBASE
 10
0.0
 20
0.0
 30
0.0
  9
$EXTMIN
 10
6.2277
 20
1.1911
 30
0.0
  9
$EXTMAX
 10
13.7658
 20
5.5656
 30
0.0
  9
$LIMMIN
 10
0.0
 20
0.0
  9
$LIMMAX
 10
12.0
 20
9.0
  9
$ORTHOMODE
 70
     0
  9
$REGENMODE
 70
     1
  9
$FILLMODE
 70
     1
  9
$QTEXTMODE
 70
     0
  9
$MIRRTEXT
 70
     1
  9
$DRAGMODE
 70
     2
  9
$LTSCALE
 40
1.0
  9
$OSMODE
 70
     0
  9
$ATTMODE
 70
     1
  9
$TEXTSIZE
 40
0.2
  9
$TRACEWID
 40
0.05
  9
$TEXTSTYLE
  7
STANDARD
  9
$CLAYER
  8
FLAMECUT
  9
$CELTYPE
  6
BYLAYER
  9
$CECOLOR
 62
     5
  9
$CELTSCALE
 40
1.0
  9
$DELOBJ
 70
     1
  9
$DISPSILH
 70
     0
  9
$DIMSCALE
 40
1.0
  9
$DIMASZ
 40
0.18
  9
$DIMEXO
 40
0.0625
  9
$DIMDLI
 40
0.38
  9
$DIMRND
 40
0.0
  9
$DIMDLE
 40
0.0
  9
$DIMEXE
 40
0.18
  9
$DIMTP
 40
0.0
  9
$DIMTM
 40
0.0
  9
$DIMTXT
 40
0.18
  9
$DIMCEN
 40
0.09
  9
$DIMTSZ
 40
0.0
  9
$DIMTOL
 70
     0
  9
$DIMLIM
 70
     0
  9
$DIMTIH
 70
     1
  9
$DIMTOH
 70
     1
  9
$DIMSE1
 70
     0
  9
$DIMSE2
 70
     0
  9
$DIMTAD
 70
     0
  9
$DIMZIN
 70
     0
  9
$DIMBLK
  1

  9
$DIMASO
 70
     1
  9
$DIMSHO
 70
     1
  9
$DIMPOST
  1

  9
$DIMAPOST
  1

  9
$DIMALT
 70
     0
  9
$DIMALTD
 70
     2
  9
$DIMALTF
 40
25.4
  9
$DIMLFAC
 40
1.0
  9
$DIMTOFL
 70
     0
  9
$DIMTVP
 40
0.0
  9
$DIMTIX
 70
     0
  9
$DIMSOXD
 70
     0
  9
$DIMSAH
 70
     0
  9
$DIMBLK1
  1

  9
$DIMBLK2
  1

  9
$DIMSTYLE
  2
STANDARD
  9
$DIMCLRD
 70
     0
  9
$DIMCLRE
 70
     0
  9
$DIMCLRT
 70
     0
  9
$DIMTFAC
 40
1.0
  9
$DIMGAP
 40
0.09
  9
$DIMJUST
 70
     0
  9
$DIMSD1
 70
     0
  9
$DIMSD2
 70
     0
  9
$DIMTOLJ
 70
     1
  9
$DIMTZIN
 70
     0
  9
$DIMALTZ
 70
     0
  9
$DIMALTTZ
 70
     0
  9
$DIMFIT
 70
     3
  9
$DIMUPT
 70
     0
  9
$DIMUNIT
 70
     2
  9
$DIMDEC
 70
     4
  9
$DIMTDEC
 70
     4
  9
$DIMALTU
 70
     2
  9
$DIMALTTD
 70
     2
  9
$DIMTXSTY
  7
STANDARD
  9
$DIMAUNIT
 70
     0
  9
$LUNITS
 70
     2
  9
$LUPREC
 70
     4
  9
$SKETCHINC
 40
0.1
  9
$FILLETRAD
 40
0.1
  9
$AUNITS
 70
     0
  9
$AUPREC
 70
     0
  9
$MENU
  1
acad
  9
$ELEVATION
 40
0.0
  9
$PELEVATION
 40
0.0
  9
$THICKNESS
 40
0.0
  9
$LIMCHECK
 70
     0
  9
$BLIPMODE
 70
     0
  9
$CHAMFERA
 40
0.0
  9
$CHAMFERB
 40
0.0
  9
$CHAMFERC
 40
0.0
  9
$CHAMFERD
 40
0.0
  9
$SKPOLY
 70
     0
  9
$TDCREATE
 40
2450420.771734259
  9
$TDUPDATE
 40
2450420.771734259
  9
$TDINDWG
 40
0.0000000000
  9
$TDUSRTIMER
 40
0.0000000000
  9
$USRTIMER
 70
     1
  9
$ANGBASE
 50
0.0
  9
$ANGDIR
 70
     0
  9
$PDMODE
 70
     0
  9
$PDSIZE
 40
0.0
  9
$PLINEWID
 40
0.0
  9
$COORDS
 70
     1
  9
$SPLFRAME
 70
     0
  9
$SPLINETYPE
 70
     6
  9
$SPLINESEGS
 70
     8
  9
$ATTDIA
 70
     0
  9
$ATTREQ
 70
     1
  9
$HANDLING
 70
     1
  9
$HANDSEED
  5
8B
  9
$SURFTAB1
 70
     6
  9
$SURFTAB2
 70
     6
  9
$SURFTYPE
 70
     6
  9
$SURFU
 70
     6
  9
$SURFV
 70
     6
  9
$UCSNAME
  2

  9
$UCSORG
 10
7.949350176112542
 20
2.094000656401016
 30
0.0
  9
$UCSXDIR
 10
1.0
 20
0.0
 30
0.0
  9
$UCSYDIR
 10
0.0
 20
1.0
 30
0.0
  9
$PUCSNAME
  2

  9
$PUCSORG
 10
0.0
 20
0.0
 30
0.0
  9
$PUCSXDIR
 10
1.0
 20
0.0
 30
0.0
  9
$PUCSYDIR
 10
0.0
 20
1.0
 30
0.0
  9
$USERI1
 70
     0
  9
$USERI2
 70
     0
  9
$USERI3
 70
     0
  9
$USERI4
 70
     0
  9
$USERI5
 70
     0
  9
$USERR1
 40
0.0
  9
$USERR2
 40
0.0
  9
$USERR3
 40
0.0
  9
$USERR4
 40
0.0
  9
$USERR5
 40
0.0
  9
$WORLDVIEW
 70
     1
  9
$SHADEDGE
 70
     3
  9
$SHADEDIF
 70
    70
  9
$TILEMODE
 70
     1
  9
$MAXACTVP
 70
    16
  9
$PINSBASE
 10
0.0
 20
0.0
 30
0.0
  9
$PLIMCHECK
 70
     0
  9
$PEXTMIN
 10
1.0000E+20
 20
1.0000E+20
 30
1.0000E+20
  9
$PEXTMAX
 10
-1.0000E+20
 20
-1.0000E+20
 30
-1.0000E+20
  9
$PLIMMIN
 10
0.0
 20
0.0
  9
$PLIMMAX
 10
12.0
 20
9.0
  9
$UNITMODE
 70
     0
  9
$VISRETAIN
 70
     0
  9
$PLINEGEN
 70
     0
  9
$PSLTSCALE
 70
     1
  9
$TREEDEPTH
 70
  3020
  9
$PICKSTYLE
 70
     1
  9
$CMLSTYLE
  2
STANDARD
  9
$CMLJUST
 70
     0
  9
$CMLSCALE
 40
1.0
  9
$SAVEIMAGES
 70
     0
  0
ENDSEC
  0
SECTION
  2
CLASSES
  0
ENDSEC
  0
SECTION
  2
TABLES
  0
TABLE
  2
VPORT
  5
8
100
AcDbSymbolTable
 70
     3
  0
VPORT
  5
8A
100
AcDbSymbolTableRecord
100
AcDbViewportTableRecord
  2
*ACTIVE
 70
     0
 10
0.0
 20
0.0
 11
1.0
 21
1.0
 12
10.0847
 22
3.5029
 13
0.0
 23
0.0
 14
1.0
 24
1.0
 15
0.0
 25
0.0
 16
0.0
 26
0.0
 36
1.0
 17
0.0
 27
0.0
 37
0.0
 40
5.5422
 41
1.7634
 42
50.0
 43
0.0
 44
0.0
 50
0.0
 51
0.0
 71
     0
 72
   100
 73
     1
 74
     1
 75
     0
 76
     0
 77
     0
 78
     0
  0
ENDTAB
  0
TABLE
  2
LTYPE
  5
5
100
AcDbSymbolTable
 70
     1
  0
LTYPE
  5
14
100
AcDbSymbolTableRecord
100
AcDbLinetypeTableRecord
  2
BYBLOCK
 70
     0
  3

 72
    65
 73
     0
 40
0.0
  0
LTYPE
  5
15
100
AcDbSymbolTableRecord
100
AcDbLinetypeTableRecord
  2
BYLAYER
 70
     0
  3

 72
    65
 73
     0
 40
0.0
  0
LTYPE
  5
16
100
AcDbSymbolTableRecord
100
AcDbLinetypeTableRecord
  2
CONTINUOUS
 70
    64
  3
Solid line
 72
    65
 73
     0
 40
0.0
  0
ENDTAB
  0
TABLE
  2
LAYER
  5
2
100
AcDbSymbolTable
 70
     2
  0
LAYER
  5
F
100
AcDbSymbolTableRecord
100
AcDbLayerTableRecord
  2
0
 70
     0
 62
     7
  6
CONTINUOUS
  0
LAYER
  5
28
100
AcDbSymbolTableRecord
100
AcDbLayerTableRecord
  2
FLAMECUT
 70
    64
 62
     6
  6
CONTINUOUS
  0
ENDTAB
  0
TABLE
  2
STYLE
  5
3
100
AcDbSymbolTable
 70
     1
  0
STYLE
  5
10
100
AcDbSymbolTableRecord
100
AcDbTextStyleTableRecord
  2
STANDARD
 70
     0
 40
0.0
 41
1.0
 50
0.0
 71
     0
 42
0.2
  3
txt
  4

  0
ENDTAB
  0
TABLE
  2
VIEW
  5
6
100
AcDbSymbolTable
 70
     0
  0
ENDTAB
  0
TABLE
  2
UCS
  5
7
100
AcDbSymbolTable
 70
     0
  0
ENDTAB
  0
TABLE
  2
APPID
  5
9
100
AcDbSymbolTable
 70
     1
  0
APPID
  5
11
100
AcDbSymbolTableRecord
100
AcDbRegAppTableRecord
  2
ACAD
 70
     0
  0
ENDTAB
  0
TABLE
  2
DIMSTYLE
  5
A
100
AcDbSymbolTable
 70
     1
  0
DIMSTYLE
105
1D
100
AcDbSymbolTableRecord
100
AcDbDimStyleTableRecord
  2
STANDARD
 70
     0
  3

  4

  5

  6

  7

 40
1.0
 41
0.18
 42
0.0625
 43
0.38
 44
0.18
 45
0.0
 46
0.0
 47
0.0
 48
0.0
140
0.18
141
0.09
142
0.0
143
25.4
144
1.0
145
0.0
146
1.0
147
0.09
 71
     0
 72
     0
 73
     1
 74
     1
 75
     0
 76
     0
 77
     0
 78
     0
170
     0
171
     2
172
     0
173
     0
174
     0
175
     0
176
     0
177
     0
178
     0
270
     2
271
     4
272
     4
273
     2
274
     2
340
10
275
     0
280
     0
281
     0
282
     0
283
     1
284
     0
285
     0
286
     0
287
     3
288
     0
  0
ENDTAB
  0
TABLE
  2
BLOCK_RECORD
  5
1
100
AcDbSymbolTable
 70
     0
  0
BLOCK_RECORD
  5
1A
100
AcDbSymbolTableRecord
100
AcDbBlockTableRecord
  2
*MODEL_SPACE
  0
BLOCK_RECORD
  5
17
100
AcDbSymbolTableRecord
100
AcDbBlockTableRecord
  2
*PAPER_SPACE
  0
ENDTAB
  0
ENDSEC
  0
SECTION
  2
BLOCKS
  0
BLOCK
  5
1B
100
AcDbEntity
  8
0
100
AcDbBlockBegin
  2
*MODEL_SPACE
 70
     0
 10
0.0
 20
0.0
 30
0.0
  3
*MODEL_SPACE
  1

  0
ENDBLK
  5
1C
100
AcDbEntity
  8
0
100
AcDbBlockEnd
  0
BLOCK
  5
18
100
AcDbEntity
 67
     1
  8
0
100
AcDbBlockBegin
  2
*PAPER_SPACE
 70
     0
 10
0.0
 20
0.0
 30
0.0
  3
*PAPER_SPACE
  1

  0
ENDBLK
  5
19
100
AcDbEntity
 67
     1
  8
0
100
AcDbBlockEnd
  0
ENDSEC
  0
SECTION
  2
ENTITIES
  0
LINE
  5
69
100
AcDbEntity
  8
FLAMECUT
 62
     5
100
AcDbLine
 10
7.9494
 20
2.094
 30
0.0
 11
7.9494
 21
4.0153
 31
0.0
  0
LINE
  5
6A
100
AcDbEntity
  8
FLAMECUT
 62
     5
100
AcDbLine
 10
8.5745
 20
4.346
 30
0.0
 11
9.321
 21
3.8376
 31
0.0
  0
LINE
  5
6B
100
AcDbEntity
  8
FLAMECUT
 62
     5
100
AcDbLine
 10
9.321
 20
3.8376
 30
0.0
 11
9.9238
 21
4.7169
 31
0.0
  0
LINE
  5
6C
100
AcDbEntity
  8
FLAMECUT
 62
     5
100
AcDbLine
 10
10.6497
 20
4.5467
 30
0.0
 11
10.7082
 21
4.1334
 31
0.0
  0
LINE
  5
6D
100
AcDbEntity
  8
FLAMECUT
 62
     5
100
AcDbLine
 10
10.7082
 20
4.1334
 30
0.0
 11
12.4851
 21
4.1645
 31
0.0
  0
LINE
  5
6E
100
AcDbEntity
  8
FLAMECUT
 62
     5
100
AcDbLine
 10
12.4851
 20
4.1645
 30
0.0
 11
12.5786
 21
2.561
 31
0.0
  0
LINE
  5
6F
100
AcDbEntity
  8
FLAMECUT
 62
     5
100
AcDbLine
 10
12.5786
 20
2.561
 30
0.0
 11
11.6335
 21
2.8083
 31
0.0
  0
LINE
  5
70
100
AcDbEntity
  8
FLAMECUT
 62
     5
100
AcDbLine
 10
11.1521
 20
2.5458
 30
0.0
 11
10.7082
 21
1.1911
 31
0.0
  0
LINE
  5
71
100
AcDbEntity
  8
FLAMECUT
 62
     5
100
AcDbLine
 10
10.7082
 20
1.1911
 30
0.0
 11
9.6323
 21
2.3731
 31
0.0
  0
LINE
  5
72
100
AcDbEntity
  8
FLAMECUT
 62
     5
100
AcDbLine
 10
9.2185
 20
2.486
 30
0.0
 11
7.9494
 21
2.094
 31
0.0
  0
ARC
  5
73
100
AcDbEntity
  8
FLAMECUT
 62
     5
100
AcDbCircle
 10
8.3494
 20
4.0153
 30
0.0
 40
0.4
100
AcDbArc
 50
55.7456
 51
180.0
  0
ARC
  5
74
100
AcDbEntity
  8
FLAMECUT
 62
     5
100
AcDbCircle
 10
10.2537
 20
4.4907
 30
0.0
 40
0.4
100
AcDbArc
 50
8.0526
 51
145.5686
  0
ARC
  5
75
100
AcDbEntity
  8
FLAMECUT
 62
     5
100
AcDbCircle
 10
9.3365
 20
2.1039
 30
0.0
 40
0.4
100
AcDbArc
 50
42.3084
 51
107.166
  0
ARC
  5
76
100
AcDbEntity
  8
FLAMECUT
 62
     5
100
AcDbCircle
 10
11.5322
 20
2.4213
 30
0.0
 40
0.4
100
AcDbArc
 50
75.3407
 51
161.8575
  0
LINE
  5
77
100
AcDbEntity
  8
FLAMECUT
 62
     5
100
AcDbLine
 10
9.7755
 20
3.3223
 30
0.0
 11
9.7839
 21
3.1764
 31
0.0
  0
LINE
  5
78
100
AcDbEntity
  8
FLAMECUT
 62
     5
100
AcDbLine
 10
9.9717
 20
3.1345
 30
0.0
 11
10.0068
 21
3.1993
 31
0.0
  0
LINE
  5
79
100
AcDbEntity
  8
FLAMECUT
 62
     5
100
AcDbLine
 10
10.0068
 20
3.1993
 30
0.0
 11
10.2562
 21
3.2149
 31
0.0
  0
LINE
  5
7A
100
AcDbEntity
  8
FLAMECUT
 62
     5
100
AcDbLine
 10
9.9534
 20
3.3906
 30
0.0
 11
10.0068
 21
3.3239
 31
0.0
  0
LINE
  5
7B
100
AcDbEntity
  8
FLAMECUT
 62
     5
100
AcDbLine
 10
10.0068
 20
3.3239
 30
0.0
 11
10.2562
 21
3.3363
 31
0.0
  0
LINE
  5
7D
100
AcDbEntity
  8
FLAMECUT
 62
     5
100
AcDbLine
 10
10.5407
 20
3.1345
 30
0.0
 11
10.5056
 21
3.1993
 31
0.0
  0
LINE
  5
7E
100
AcDbEntity
  8
FLAMECUT
 62
     5
100
AcDbLine
 10
10.7369
 20
3.3223
 30
0.0
 11
10.7285
 21
3.1764
 31
0.0
  0
LINE
  5
7F
100
AcDbEntity
  8
FLAMECUT
 62
     5
100
AcDbLine
 10
10.5056
 20
3.3239
 30
0.0
 11
10.2562
 21
3.3363
 31
0.0
  0
LINE
  5
80
100
AcDbEntity
  8
FLAMECUT
 62
     5
100
AcDbLine
 10
10.5056
 20
3.1993
 30
0.0
 11
10.2562
 21
3.2149
 31
0.0
  0
LINE
  5
81
100
AcDbEntity
  8
FLAMECUT
 62
     5
100
AcDbLine
 10
10.559
 20
3.3906
 30
0.0
 11
10.5056
 21
3.3239
 31
0.0
  0
ARC
  5
83
100
AcDbEntity
  8
FLAMECUT
 62
     5
100
AcDbCircle
 10
9.8753
 20
3.328
 30
0.0
 40
0.1
100
AcDbArc
 50
38.6938
 51
183.3059
  0
ARC
  5
84
100
AcDbEntity
  8
FLAMECUT
 62
     5
100
AcDbCircle
 10
9.8838
 20
3.1822
 30
0.0
 40
0.1
100
AcDbArc
 50
183.3059
 51
331.5279
  0
ARC
  5
85
100
AcDbEntity
  8
FLAMECUT
 62
     5
100
AcDbCircle
 10
10.6286
 20
3.1822
 30
0.0
 40
0.1
100
AcDbArc
 50
208.4721
 51
356.6941
  0
ARC
  5
86
100
AcDbEntity
  8
FLAMECUT
 62
     5
100
AcDbCircle
 10
10.6371
 20
3.328
 30
0.0
 40
0.1
100
AcDbArc
 50
356.6941
 51
141.3062
  0
CIRCLE
  5
87
100
AcDbEntity
  8
FLAMECUT
 62
     5
100
AcDbCircle
 10
8.3494
 20
4.0153
 30
0.0
 40
0.227
  0
CIRCLE
  5
88
100
AcDbEntity
  8
FLAMECUT
 62
     5
100
AcDbCircle
 10
10.2537
 20
4.4907
 30
0.0
 40
0.2363
  0
LINE
  5
89
100
AcDbEntity
  8
FLAMECUT
 62
     5
100
AcDbLine
 10
7.9494
 20
2.094
 30
0.0
 11
7.435
 21
1.5336
 31
0.0
  0
ENDSEC
  0
SECTION
  2
OBJECTS
  0
DICTIONARY
  5
C
100
AcDbDictionary
  3
ACAD_GROUP
350
D
  3
ACAD_MLINESTYLE
350
E
  0
DICTIONARY
  5
D
102
{ACAD_REACTORS
330
C
102
}
100
AcDbDictionary
  0
DICTIONARY
  5
E
102
{ACAD_REACTORS
330
C
102
}
100
AcDbDictionary
  3
STANDARD
350
13
  0
MLINESTYLE
  5
13
102
{ACAD_REACTORS
330
E
102
}
100
AcDbMlineStyle
  2
STANDARD
 70
     0
  3

 62
     0
 51
90.0
 52
90.0
 71
     2
 49
0.5
 62
   256
  6
BYLAYER
 49
-0.5
 62
   256
  6
BYLAYER
  0
ENDSEC
  0
EOF
