  0
SECTION
  2
HEADER
  9
$ACADVER
  1
AC1009
  9
$INSBASE
 10
0.0
 20
0.0
 30
0.0
  9
$EXTMIN
 10
-80.964043
 20
27.982633
 30
0.0
  9
$EXTMAX
 10
265.872913
 20
246.749192
 30
0.0
  9
$LIMMIN
 10
0.0
 20
0.0
  9
$LIMMAX
 10
594.0
 20
420.0
  9
$ORTHOMODE
 70
     1
  9
$REGENMODE
 70
     1
  9
$FILLMODE
 70
     1
  9
$QTEXTMODE
 70
     0
  9
$MIRRTEXT
 70
     1
  9
$DRAGMODE
 70
     2
  9
$LTSCALE
 40
10.0
  9
$OSMODE
 70
    32
  9
$ATTMODE
 70
     1
  9
$TEXTSIZE
 40
3.0
  9
$TRACEWID
 40
0.05
  9
$TEXTSTYLE
  7
ROMANS
  9
$CLAYER
  8
DRAW
  9
$CELTYPE
  6
BYLAYER
  9
$CECOLOR
 62
   256
  9
$DIMSCALE
 40
1.0
  9
$DIMASZ
 40
5.0
  9
$DIMEXO
 40
2.5
  9
$DIMDLI
 40
15.0
  9
$DIMRND
 40
0.0
  9
$DIMDLE
 40
0.0
  9
$DIMEXE
 40
3.0
  9
$DIMTP
 40
0.0
  9
$DIMTM
 40
0.0
  9
$DIMTXT
 40
3.0
  9
$DIMCEN
 40
-4.0
  9
$DIMTSZ
 40
0.0
  9
$DIMTOL
 70
     0
  9
$DIMLIM
 70
     0
  9
$DIMTIH
 70
     0
  9
$DIMTOH
 70
     1
  9
$DIMSE1
 70
     0
  9
$DIMSE2
 70
     0
  9
$DIMTAD
 70
     1
  9
$DIMZIN
 70
     8
  9
$DIMBLK
  1

  9
$DIMASO
 70
     1
  9
$DIMSHO
 70
     0
  9
$DIMPOST
  1

  9
$DIMAPOST
  1

  9
$DIMALT
 70
     0
  9
$DIMALTD
 70
     2
  9
$DIMALTF
 40
0.03937
  9
$DIMLFAC
 40
1.0
  9
$DIMTOFL
 70
     0
  9
$DIMTVP
 40
0.0
  9
$DIMTIX
 70
     0
  9
$DIMSOXD
 70
     0
  9
$DIMSAH
 70
     0
  9
$DIMBLK1
  1

  9
$DIMBLK2
  1

  9
$DIMSTYLE
  2
*UNNAMED
  9
$DIMCLRD
 70
     0
  9
$DIMCLRE
 70
     0
  9
$DIMCLRT
 70
     0
  9
$DIMTFAC
 40
1.0
  9
$DIMGAP
 40
0.09
  9
$LUNITS
 70
     2
  9
$LUPREC
 70
     2
  9
$AXISMODE
 70
     1
  9
$AXISUNIT
 10
100.0
 20
100.0
  9
$SKETCHINC
 40
0.1
  9
$FILLETRAD
 40
2.0
  9
$AUNITS
 70
     0
  9
$AUPREC
 70
     2
  9
$MENU
  1
NITC11
  9
$ELEVATION
 40
0.0
  9
$PELEVATION
 40
0.0
  9
$THICKNESS
 40
0.0
  9
$LIMCHECK
 70
     0
  9
$BLIPMODE
 70
     1
  9
$CHAMFERA
 40
0.0
  9
$CHAMFERB
 40
0.0
  9
$SKPOLY
 70
     0
  9
$TDCREATE
 40
2449115.310569166
  9
$TDUPDATE
 40
2449115.342274456
  9
$TDINDWG
 40
0.0317052894
  9
$TDUSRTIMER
 40
0.0317052894
  9
$USRTIMER
 70
     1
  9
$ANGBASE
 50
0.0
  9
$ANGDIR
 70
     0
  9
$PDMODE
 70
     0
  9
$PDSIZE
 40
0.0
  9
$PLINEWID
 40
0.0
  9
$COORDS
 70
     1
  9
$SPLFRAME
 70
     0
  9
$SPLINETYPE
 70
     6
  9
$SPLINESEGS
 70
     8
  9
$ATTDIA
 70
     1
  9
$ATTREQ
 70
     1
  9
$HANDLING
 70
     0
  9
$HANDSEED
  5
0
  9
$SURFTAB1
 70
    12
  9
$SURFTAB2
 70
    12
  9
$SURFTYPE
 70
     6
  9
$SURFU
 70
     6
  9
$SURFV
 70
     6
  9
$UCSNAME
  2

  9
$UCSORG
 10
0.0
 20
0.0
 30
0.0
  9
$UCSXDIR
 10
1.0
 20
0.0
 30
0.0
  9
$UCSYDIR
 10
0.0
 20
1.0
 30
0.0
  9
$PUCSNAME
  2

  9
$PUCSORG
 10
0.0
 20
0.0
 30
0.0
  9
$PUCSXDIR
 10
1.0
 20
0.0
 30
0.0
  9
$PUCSYDIR
 10
0.0
 20
1.0
 30
0.0
  9
$USERI1
 70
     0
  9
$USERI2
 70
     0
  9
$USERI3
 70
     0
  9
$USERI4
 70
     0
  9
$USERI5
 70
     0
  9
$USERR1
 40
0.0
  9
$USERR2
 40
0.0
  9
$USERR3
 40
0.0
  9
$USERR4
 40
0.0
  9
$USERR5
 40
0.0
  9
$WORLDVIEW
 70
     1
  9
$SHADEDGE
 70
     3
  9
$SHADEDIF
 70
    70
  9
$TILEMODE
 70
     1
  9
$MAXACTVP
 70
    16
  9
$PINSBASE
 10
0.0
 20
0.0
 30
0.0
  9
$PLIMCHECK
 70
     0
  9
$PEXTMIN
 10
1.000000E+20
 20
1.000000E+20
 30
1.000000E+20
  9
$PEXTMAX
 10
-1.000000E+20
 20
-1.000000E+20
 30
-1.000000E+20
  9
$PLIMMIN
 10
0.0
 20
0.0
  9
$PLIMMAX
 10
12.0
 20
9.0
  9
$UNITMODE
 70
     0
  9
$VISRETAIN
 70
     0
  0
ENDSEC
  0
SECTION
  2
TABLES
  0
TABLE
  2
VPORT
 70
    11
  0
VPORT
  2
*ACTIVE
 70
     0
 10
0.0
 20
0.0
 11
1.0
 21
1.0
 12
91.697254
 22
162.714292
 13
0.0
 23
0.0
 14
1.0
 24
1.0
 15
0.0
 25
0.0
 16
0.0
 26
0.0
 36
1.0
 17
0.0
 27
0.0
 37
0.0
 40
299.403686
 41
1.28152
 42
50.0
 43
0.0
 44
0.0
 50
0.0
 51
0.0
 71
     0
 72
   100
 73
     1
 74
     1
 75
     0
 76
     0
 77
     0
 78
     0
  0
VPORT
  2
SINGLE
 70
     0
 10
0.0
 20
0.0
 11
1.0
 21
1.0
 12
300.599933
 22
223.939437
 13
0.0
 23
0.0
 14
1.0
 24
1.0
 15
0.0
 25
0.0
 16
0.0
 26
0.0
 36
1.0
 17
0.0
 27
0.0
 37
0.0
 40
449.047194
 41
1.338834
 42
50.0
 43
0.0
 44
0.0
 50
0.0
 51
0.0
 71
     0
 72
   100
 73
     1
 74
     1
 75
     0
 76
     0
 77
     0
 78
     0
  0
VPORT
  2
3SPLIT
 70
     0
 10
0.0
 20
0.0
 11
0.5
 21
1.0
 12
297.0
 22
1029.053509
 13
0.0
 23
0.0
 14
1.0
 24
1.0
 15
0.0
 25
0.0
 16
0.0
 26
0.0
 36
1.0
 17
0.0
 27
0.0
 37
0.0
 40
2110.558613
 41
0.627286
 42
50.0
 43
0.0
 44
0.0
 50
0.0
 51
0.0
 71
     0
 72
   100
 73
     1
 74
     1
 75
     0
 76
     0
 77
     0
 78
     0
  0
VPORT
  2
3SPLIT
 70
     0
 10
0.5
 20
0.5
 11
1.0
 21
1.0
 12
298.404981
 22
499.849685
 13
0.0
 23
0.0
 14
1.0
 24
1.0
 15
0.0
 25
0.0
 16
0.0
 26
0.0
 36
1.0
 17
0.0
 27
0.0
 37
0.0
 40
1052.150966
 41
1.260974
 42
50.0
 43
0.0
 44
0.0
 50
0.0
 51
0.0
 71
     0
 72
   100
 73
     1
 74
     1
 75
     0
 76
     0
 77
     0
 78
     0
  0
VPORT
  2
3SPLIT
 70
     0
 10
0.5
 20
0.0
 11
1.0
 21
0.5
 12
298.404981
 22
499.849685
 13
0.0
 23
0.0
 14
1.0
 24
1.0
 15
0.0
 25
0.0
 16
0.0
 26
0.0
 36
1.0
 17
0.0
 27
0.0
 37
0.0
 40
1052.150966
 41
1.260974
 42
50.0
 43
0.0
 44
0.0
 50
0.0
 51
0.0
 71
     0
 72
   100
 73
     1
 74
     1
 75
     0
 76
     0
 77
     0
 78
     0
  0
VPORT
  2
3D
 70
     0
 10
0.5
 20
0.5
 11
1.0
 21
1.0
 12
269.799334
 22
-182.932613
 13
0.0
 23
0.0
 14
1.0
 24
1.0
 15
0.0
 25
0.0
 16
-1.0
 26
-1.0
 36
1.0
 17
304.209283
 27
304.209283
 37
173.336497
 40
898.962736
 41
1.260974
 42
50.0
 43
181.641871
 44
181.641871
 50
0.0
 51
0.0
 71
     0
 72
   100
 73
     1
 74
     1
 75
     0
 76
     0
 77
     0
 78
     0
  0
VPORT
  2
3D
 70
     0
 10
0.0
 20
0.0
 11
0.5
 21
0.5
 12
374.509188
 22
0.0
 13
0.0
 23
0.0
 14
1.0
 24
1.0
 15
0.0
 25
0.0
 16
0.0
 26
-1.0
 36
0.0
 17
0.0
 27
0.0
 37
0.0
 40
660.0
 41
1.260974
 42
50.0
 43
0.0
 44
0.0
 50
0.0
 51
0.0
 71
     0
 72
   100
 73
     1
 74
     1
 75
     0
 76
     0
 77
     0
 78
     0
  0
VPORT
  2
3D
 70
     0
 10
0.5
 20
0.0
 11
1.0
 21
0.5
 12
374.509188
 22
0.0
 13
0.0
 23
0.0
 14
1.0
 24
1.0
 15
0.0
 25
0.0
 16
1.0
 26
0.0
 36
0.0
 17
0.0
 27
0.0
 37
0.0
 40
660.0
 41
1.260974
 42
50.0
 43
0.0
 44
0.0
 50
0.0
 51
0.0
 71
     0
 72
   100
 73
     1
 74
     1
 75
     0
 76
     0
 77
     0
 78
     0
  0
VPORT
  2
3D
 70
     0
 10
0.0
 20
0.5
 11
0.5
 21
1.0
 12
297.0
 22
235.532272
 13
0.0
 23
0.0
 14
1.0
 24
1.0
 15
0.0
 25
0.0
 16
0.0
 26
0.0
 36
1.0
 17
0.0
 27
0.0
 37
0.0
 40
523.405049
 41
1.260974
 42
50.0
 43
0.0
 44
0.0
 50
0.0
 51
0.0
 71
     0
 72
   100
 73
     1
 74
     1
 75
     0
 76
     0
 77
     0
 78
     0
  0
ENDTAB
  0
TABLE
  2
LTYPE
 70
     9
  0
LTYPE
  2
CONTINUOUS
 70
    64
  3
Solid line
 72
    65
 73
     0
 40
0.0
  0
LTYPE
  2
DASHED
 70
    64
  3
__ __ __ __ __ __ __ __ __ __ __ __ __ __ __
 72
    65
 73
     2
 40
0.75
 49
0.5
 49
-0.25
  0
LTYPE
  2
HIDDEN
 70
     0
  3
_ _ _ _ _ _ _ _ _ _ _ _ _ _ _ _ _ _ _ _ _ _ _
 72
    65
 73
     2
 40
0.375
 49
0.25
 49
-0.125
  0
LTYPE
  2
PHANTOM
 70
     0
  3
_____ _ _ _____ _ _ _____ _ _ _____ _ _ ____
 72
    65
 73
     6
 40
2.5
 49
1.25
 49
-0.25
 49
0.25
 49
-0.25
 49
0.25
 49
-0.25
  0
LTYPE
  2
DOT
 70
     0
  3
...............................................
 72
    65
 73
     2
 40
0.25
 49
0.0
 49
-0.25
  0
LTYPE
  2
DASHDOT
 70
     0
  3
__ . __ . __ . __ . __ . __ . __ . __ . __ . __
 72
    65
 73
     4
 40
1.0
 49
0.5
 49
-0.25
 49
0.0
 49
-0.25
  0
LTYPE
  2
BORDER
 70
     0
  3
__ __ . __ __ . __ __ . __ __ . __ __ . __ __
 72
    65
 73
     6
 40
1.75
 49
0.5
 49
-0.25
 49
0.5
 49
-0.25
 49
0.0
 49
-0.25
  0
LTYPE
  2
DIVIDE
 70
     0
  3
__ . . __ . . __ . . __ . . __ . . __ . . __
 72
    65
 73
     6
 40
1.25
 49
0.5
 49
-0.25
 49
0.0
 49
-0.25
 49
0.0
 49
-0.25
  0
LTYPE
  2
CENTER
 70
    64
  3
____ _ ____ _ ____ _ ____ _ ____ _ ____ _ ____
 72
    65
 73
     4
 40
2.0
 49
1.25
 49
-0.25
 49
0.25
 49
-0.25
  0
ENDTAB
  0
TABLE
  2
LAYER
 70
    14
  0
LAYER
  2
0
 70
    64
 62
     1
  6
CONTINUOUS
  0
LAYER
  2
DRAW
 70
    64
 62
     4
  6
CONTINUOUS
  0
LAYER
  2
HATCH
 70
     0
 62
     3
  6
CONTINUOUS
  0
LAYER
  2
HID
 70
     0
 62
     9
  6
DASHED
  0
LAYER
  2
DIM
 70
     0
 62
    21
  6
CONTINUOUS
  0
LAYER
  2
CENTER
 70
     0
 62
    21
  6
CENTER
  0
LAYER
  2
SHEET
 70
     0
 62
     7
  6
CONTINUOUS
  0
LAYER
  2
CONSTRUCT
 70
     0
 62
     5
  6
CONTINUOUS
  0
LAYER
  2
BALLOON
 70
     0
 62
     2
  6
CONTINUOUS
  0
LAYER
  2
PARTLIST
 70
     0
 62
     2
  6
CONTINUOUS
  0
LAYER
  2
PNU
 70
     0
 62
     3
  6
CONTINUOUS
  0
LAYER
  2
PLAN
 70
    64
 62
     7
  6
CONTINUOUS
  0
LAYER
  2
SIDE
 70
    64
 62
     7
  6
CONTINUOUS
  0
LAYER
  2
REAR
 70
    64
 62
     7
  6
CONTINUOUS
  0
ENDTAB
  0
TABLE
  2
STYLE
 70
    25
  0
STYLE
  2
STANDARD
 70
     0
 40
0.0
 41
1.0
 50
0.0
 71
     0
 42
0.2
  3
txt
  4

  0
STYLE
  2
ROMANS
 70
    64
 40
0.0
 41
1.0
 50
0.0
 71
     0
 42
3.0
  3
romans
  4

  0
STYLE
  2
ROMANT
 70
     0
 40
0.0
 41
1.0
 50
0.0
 71
     0
 42
0.2
  3
romant
  4

  0
STYLE
  2
GREEKS
 70
     0
 40
0.0
 41
1.0
 50
0.0
 71
     0
 42
0.2
  3
greeks
  4

  0
STYLE
  2
SCRIPTC
 70
     0
 40
0.0
 41
1.0
 50
0.0
 71
     0
 42
0.2
  3
scriptc
  4

  0
STYLE
  2
ROMANC
 70
     0
 40
0.0
 41
1.0
 50
0.0
 71
     0
 42
0.2
  3
romanc
  4

  0
STYLE
  2
ITALICT
 70
     0
 40
0.0
 41
1.0
 50
0.0
 71
     0
 42
0.2
  3
italict
  4

  0
STYLE
  2
SCRIPTS
 70
     0
 40
0.0
 41
1.0
 50
0.0
 71
     0
 42
0.2
  3
scripts
  4

  0
STYLE
  2
GOTHICI
 70
     0
 40
0.0
 41
1.0
 50
0.0
 71
     0
 42
0.2
  3
gothici
  4

  0
STYLE
  2
ITALICC
 70
     0
 40
0.0
 41
1.0
 50
0.0
 71
     0
 42
0.2
  3
italicc
  4

  0
STYLE
  2
MONOTXT
 70
     0
 40
0.0
 41
1.0
 50
0.0
 71
     0
 42
0.2
  3
monotxt
  4

  0
STYLE
  2
GOTHICG
 70
     0
 40
0.0
 41
1.0
 50
0.0
 71
     0
 42
0.2
  3
gothicg
  4

  0
STYLE
  2
ROMAND
 70
     0
 40
0.0
 41
1.0
 50
0.0
 71
     0
 42
0.2
  3
romand
  4

  0
STYLE
  2
GOTHICE
 70
     0
 40
0.0
 41
1.0
 50
0.0
 71
     0
 42
0.2
  3
gothice
  4

  0
STYLE
  2
GREEKC
 70
     0
 40
0.0
 41
1.0
 50
0.0
 71
     0
 42
0.2
  3
greekc
  4

  0
STYLE
  2
TXT
 70
     0
 40
0.0
 41
1.0
 50
0.0
 71
     0
 42
0.2
  3
txt
  4

  0
STYLE
  2
ISO
 70
     0
 40
0.0
 41
1.0
 50
0.0
 71
     0
 42
0.2
  3
monotxt
  4

  0
STYLE
  2
CYRILSTD
 70
     0
 40
0.0
 41
1.0
 50
0.0
 71
     0
 42
0.2
  3
cyriltlc
  4

  0
STYLE
  2
CYRILLIC
 70
     0
 40
0.0
 41
1.0
 50
0.0
 71
     0
 42
0.2
  3
cyrillic
  4

  0
STYLE
  2
CYRILTLC
 70
     0
 40
0.0
 41
1.0
 50
0.0
 71
     0
 42
0.2
  3
cyriltlc
  4

  0
STYLE
  2
SYASTRO
 70
     0
 40
0.0
 41
1.0
 50
0.0
 71
     0
 42
0.25
  3
syastro
  4

  0
STYLE
  2
SYMATH
 70
     0
 40
0.0
 41
1.0
 50
0.0
 71
     0
 42
0.25
  3
symath
  4

  0
STYLE
  2
SYMUSIC
 70
     0
 40
0.0
 41
1.0
 50
0.0
 71
     0
 42
0.25
  3
symusic
  4

  0
STYLE
  2
SYMAP
 70
     0
 40
0.0
 41
1.0
 50
0.0
 71
     0
 42
0.25
  3
symap
  4

  0
STYLE
  2
SYMETEO
 70
     0
 40
0.0
 41
1.0
 50
0.0
 71
     0
 42
0.25
  3
symeteo
  4

  0
ENDTAB
  0
TABLE
  2
VIEW
 70
     2
  0
VIEW
  2
ALL
 70
     0
 40
447.878874
 10
299.817839
 20
223.939437
 41
599.635678
 11
0.0
 21
0.0
 31
1.0
 12
0.0
 22
0.0
 32
0.0
 42
50.0
 43
0.0
 44
0.0
 50
0.0
 71
     0
  0
VIEW
  2
DETAIL
 70
     0
 40
200.0
 10
277.040323
 20
461.336535
 41
125.457282
 11
0.0
 21
0.0
 31
1.0
 12
0.0
 22
0.0
 32
0.0
 42
50.0
 43
0.0
 44
0.0
 50
0.0
 71
     0
  0
ENDTAB
  0
TABLE
  2
UCS
 70
     0
  0
ENDTAB
  0
TABLE
  2
APPID
 70
     1
  0
APPID
  2
ACAD
 70
    64
  0
ENDTAB
  0
TABLE
  2
DIMSTYLE
 70
     2
  0
DIMSTYLE
  2
DEFAULT
 70
     0
  3

  4

  5

  6

  7

 40
1.0
 41
5.0
 42
2.5
 43
15.0
 44
3.0
 45
0.0
 46
0.0
 47
0.0
 48
0.0
140
3.0
141
-4.0
142
0.0
143
0.03937
144
1.0
145
0.0
146
1.0
147
0.09
 71
     0
 72
     0
 73
     0
 74
     1
 75
     0
 76
     0
 77
     1
 78
     8
170
     0
171
     2
172
     0
173
     0
174
     1
175
     0
176
     0
177
     0
178
     0
  0
DIMSTYLE
  2
STD
 70
     0
  3

  4

  5

  6

  7

 40
1.0
 41
5.0
 42
2.5
 43
15.0
 44
3.0
 45
0.0
 46
0.0
 47
0.0
 48
0.0
140
3.0
141
-4.0
142
0.0
143
0.03937
144
1.0
145
0.0
146
1.0
147
0.09
 71
     0
 72
     0
 73
     0
 74
     1
 75
     0
 76
     0
 77
     1
 78
     8
170
     0
171
     2
172
     0
173
     0
174
     0
175
     0
176
     0
177
     0
178
     0
  0
ENDTAB
  0
ENDSEC
  0
SECTION
  2
BLOCKS
  0
BLOCK
  8
0
  2
RECT
 70
     0
 10
0.0
 20
0.0
 30
0.0
  3
RECT
  0
LINE
  8
0
 10
0.0
 20
1.0
 30
0.0
 11
0.0
 21
0.0
 31
0.0
  0
LINE
  8
0
 10
1.0
 20
1.0
 30
0.0
 11
0.0
 21
1.0
 31
0.0
  0
LINE
  8
0
 10
1.0
 20
0.0
 30
0.0
 11
1.0
 21
1.0
 31
0.0
  0
LINE
  8
0
 10
0.0
 20
0.0
 30
0.0
 11
1.0
 21
0.0
 31
0.0
  0
ENDBLK
  8
0
  0
BLOCK
  8
DRAW
  2
DVIEWBLOCK
 70
     0
 10
0.0
 20
0.0
 30
0.0
  3
DVIEWBLOCK
  0
TEXT
  8
DRAW
 10
0.130952
 20
0.375
 30
1.0
 40
0.25
  1
RHT
  7
ROMANS
 72
     4
 11
0.5
 21
0.5
 31
1.0
210
1.0
220
0.0
230
0.0
  0
TEXT
  8
DRAW
 10
0.160714
 20
0.375
 30
1.0
 40
0.25
  1
TOP
  7
ROMANS
 72
     4
 11
0.5
 21
0.5
 31
1.0
  0
TEXT
  8
DRAW
 10
0.154762
 20
0.375
 30
0.0
 40
0.25
  1
FRT
  7
ROMANS
 72
     4
 11
0.5
 21
0.5
 31
0.0
210
0.0
220
-1.0
230
0.0
  0
LINE
  8
DRAW
 10
1.0
 20
1.0
 30
0.0
 11
1.0
 21
1.0
 31
1.0
210
0.0
220
-1.0
230
0.0
  0
LINE
  8
DRAW
 10
1.0
 20
0.0
 30
0.0
 11
1.0
 21
0.0
 31
1.0
210
0.0
220
-1.0
230
0.0
  0
LINE
  8
DRAW
 10
0.0
 20
0.0
 30
0.0
 11
0.0
 21
0.0
 31
1.0
210
0.0
220
-1.0
230
0.0
  0
LINE
  8
DRAW
 10
0.0
 20
1.0
 30
0.0
 11
0.0
 21
1.0
 31
1.0
210
0.0
220
-1.0
230
0.0
  0
LINE
  8
DRAW
 10
0.0
 20
0.0
 30
1.0
 11
1.0
 21
0.0
 31
1.0
  0
LINE
  8
DRAW
 10
0.0
 20
1.0
 30
1.0
 11
1.0
 21
1.0
 31
1.0
  0
LINE
  8
DRAW
 10
0.0
 20
1.0
 30
1.0
 11
0.0
 21
0.0
 31
1.0
  0
LINE
  8
DRAW
 10
1.0
 20
1.0
 30
1.0
 11
1.0
 21
0.0
 31
1.0
  0
LINE
  8
DRAW
 10
1.0
 20
1.0
 30
0.0
 11
1.0
 21
0.0
 31
0.0
  0
LINE
  8
DRAW
 10
0.0
 20
1.0
 30
0.0
 11
0.0
 21
0.0
 31
0.0
  0
LINE
  8
DRAW
 10
0.0
 20
1.0
 30
0.0
 11
1.0
 21
1.0
 31
0.0
  0
LINE
  8
DRAW
 10
0.0
 20
0.0
 30
0.0
 11
1.0
 21
0.0
 31
0.0
  0
ENDBLK
  8
DRAW
  0
BLOCK
  8
DRAW
  2
BALLNUM
 70
     2
 10
0.0
 20
0.0
 30
0.0
  3
BALLNUM
  0
ATTDEF
  8
0
 10
-10.357143
 20
-19.5
 30
0.0
 40
3.0
  1
%%32
  3
remarks
  2
REMARKS
 70
     9
  7
ROMANS
 72
     4
 11
0.0
 21
-18.0
 31
0.0
  0
ATTDEF
  8
0
 10
-10.285714
 20
-13.357143
 30
0.0
 40
3.0
  1
%%32
  3
quantity
  2
QUANTITY
 70
     9
  7
ROMANS
 72
     4
 11
0.0
 21
-12.0
 31
0.0
  0
ATTDEF
  8
0
 10
-14.214286
 20
-7.5
 30
0.0
 40
3.0
  1
%%32
  3
description
  2
DESCRIPTION
 70
     9
  7
ROMANS
 72
     4
 11
0.0
 21
-6.0
 31
0.0
  0
ATTDEF
  8
0
 10
-1.571429
 20
-1.5
 30
0.0
 40
3.0
  1
n
  3
item_number
  2
N
 70
     4
  7
ROMANS
 72
     4
 11
0.0
 21
0.0
 31
0.0
  0
ENDBLK
  8
DRAW
  0
BLOCK
  8
DRAW
  2
CAPSPEC
 70
     2
 10
0.0
 20
0.0
 30
0.0
  3
CAPSPEC
  0
POINT
  8
0
 10
0.0
 20
0.0
 30
0.0
  0
ATTDEF
  8
0
 10
-5.785714
 20
-1.5
 30
0.0
 40
3.0
  1
%%032
  3
fastener_spec
  2
SPEC
 70
     5
  7
ROMANS
 72
     4
 11
0.0
 21
0.0
 31
0.0
  0
ENDBLK
  8
DRAW
  0
ENDSEC
  0
SECTION
  2
ENTITIES
  0
LINE
  8
CENTER
 10
-73.896043
 20
219.539352
 30
0.0
 11
176.103957
 21
219.539352
 31
0.0
  0
LINE
  8
PLAN
 10
-73.394168
 20
219.348832
 30
0.0
 11
-73.394168
 21
221.348832
 31
0.0
  0
LINE
  8
PLAN
 10
-73.394168
 20
239.348832
 30
0.0
 11
-11.394168
 21
239.348832
 31
0.0
  0
LINE
  8
PLAN
 10
26.605832
 20
239.348832
 30
0.0
 11
26.605832
 21
219.348832
 31
0.0
  0
LINE
  8
PLAN
 10
27.832231
 20
224.348832
 30
0.0
 11
119.81977
 21
224.348832
 31
0.0
  0
LINE
  8
PLAN
 10
146.605832
 20
224.348832
 30
0.0
 11
146.605832
 21
219.348832
 31
0.0
  0
LINE
  8
PLAN
 10
18.605832
 20
239.348832
 30
0.0
 11
18.605832
 21
219.348832
 31
0.0
  0
LINE
  8
PLAN
 10
-11.394168
 20
239.348832
 30
0.0
 11
-11.394168
 21
238.348832
 31
0.0
  0
ARC
  8
PLAN
 10
3.605832
 20
259.348832
 30
0.0
 40
25.0
 50
233.130102
 51
306.869898
  0
LINE
  8
PLAN
 10
18.605832
 20
239.348832
 30
0.0
 11
26.605832
 21
239.348832
 31
0.0
  0
ARC
  8
PLAN
 10
-43.394168
 20
219.348832
 30
0.0
 40
36.055513
 50
146.309932
 51
180.0
  0
LINE
  8
PLAN
 10
-68.394168
 20
233.348832
 30
0.0
 11
-16.394168
 21
233.348832
 31
0.0
  0
LINE
  8
PLAN
 10
-68.394168
 20
226.348832
 30
0.0
 11
-16.394168
 21
226.348832
 31
0.0
  0
LINE
  8
PLAN
 10
-73.394168
 20
238.348832
 30
0.0
 11
-73.394168
 21
239.348832
 31
0.0
  0
LINE
  8
PLAN
 10
-11.394168
 20
221.348832
 30
0.0
 11
-11.394168
 21
219.348832
 31
0.0
  0
ARC
  8
PLAN
 10
-68.394168
 20
221.348832
 30
0.0
 40
5.0
 50
90.0
 51
180.0
  0
ARC
  8
PLAN
 10
-16.394168
 20
221.348832
 30
0.0
 40
5.0
 50
0.0
 51
90.0
  0
ARC
  8
PLAN
 10
-68.394168
 20
238.348832
 30
0.0
 40
5.0
 50
180.0
 51
270.0
  0
ARC
  8
PLAN
 10
-16.394168
 20
238.348832
 30
0.0
 40
5.0
 50
270.0
 51
0.0
  0
LINE
  8
PLAN
 10
-73.394168
 20
239.348832
 30
0.0
 11
-73.394168
 21
219.539352
 31
0.0
  0
LINE
  8
PLAN
 10
-11.394168
 20
239.348832
 30
0.0
 11
-11.394168
 21
219.539352
 31
0.0
  0
LINE
  8
PLAN
 10
106.605832
 20
219.539352
 30
0.0
 11
106.605832
 21
219.348832
 31
0.0
  0
LINE
  8
PLAN
 10
146.605832
 20
224.348832
 30
0.0
 11
131.786822
 21
228.319574
 31
0.0
  0
LINE
  8
PLAN
 10
106.605832
 20
219.539352
 30
0.0
 11
130.585143
 21
228.267107
 31
0.0
  0
ARC
  8
PLAN
 10
131.269184
 20
226.387722
 30
0.0
 40
2.0
 50
75.0
 51
110.0
  0
ARC
  8
PLAN
 10
131.269184
 20
212.328912
 30
0.0
 40
2.0
 50
250.0
 51
285.0
  0
LINE
  8
PLAN
 10
106.605832
 20
219.177282
 30
0.0
 11
130.585143
 21
210.449526
 31
0.0
  0
LINE
  8
PLAN
 10
146.605832
 20
214.367802
 30
0.0
 11
131.786822
 21
210.39706
 31
0.0
  0
LINE
  8
PLAN
 10
106.605832
 20
219.177282
 30
0.0
 11
106.605832
 21
219.367802
 31
0.0
  0
LINE
  8
PLAN
 10
-11.394168
 20
199.367802
 30
0.0
 11
-11.394168
 21
219.177282
 31
0.0
  0
LINE
  8
PLAN
 10
-73.394168
 20
199.367802
 30
0.0
 11
-73.394168
 21
219.177282
 31
0.0
  0
ARC
  8
PLAN
 10
-16.394168
 20
200.367802
 30
0.0
 40
5.0
 50
0.0
 51
90.0
  0
ARC
  8
PLAN
 10
-68.394168
 20
200.367802
 30
0.0
 40
5.0
 50
90.0
 51
180.0
  0
ARC
  8
PLAN
 10
-16.394168
 20
217.367802
 30
0.0
 40
5.0
 50
270.0
 51
0.0
  0
ARC
  8
PLAN
 10
-68.394168
 20
217.367802
 30
0.0
 40
5.0
 50
180.0
 51
270.0
  0
LINE
  8
PLAN
 10
-11.394168
 20
217.367802
 30
0.0
 11
-11.394168
 21
219.367802
 31
0.0
  0
LINE
  8
PLAN
 10
-73.394168
 20
200.367802
 30
0.0
 11
-73.394168
 21
199.367802
 31
0.0
  0
LINE
  8
PLAN
 10
-68.394168
 20
212.367802
 30
0.0
 11
-16.394168
 21
212.367802
 31
0.0
  0
LINE
  8
PLAN
 10
-68.394168
 20
205.367802
 30
0.0
 11
-16.394168
 21
205.367802
 31
0.0
  0
ARC
  8
PLAN
 10
-43.394168
 20
219.367802
 30
0.0
 40
36.055513
 50
180.0
 51
213.690068
  0
LINE
  8
PLAN
 10
18.605832
 20
199.367802
 30
0.0
 11
26.605832
 21
199.367802
 31
0.0
  0
ARC
  8
PLAN
 10
3.605832
 20
179.367802
 30
0.0
 40
25.0
 50
53.130102
 51
126.869898
  0
LINE
  8
PLAN
 10
-11.394168
 20
199.367802
 30
0.0
 11
-11.394168
 21
200.367802
 31
0.0
  0
LINE
  8
PLAN
 10
18.605832
 20
199.367802
 30
0.0
 11
18.605832
 21
219.367802
 31
0.0
  0
LINE
  8
PLAN
 10
146.605832
 20
214.367802
 30
0.0
 11
146.605832
 21
219.367802
 31
0.0
  0
LINE
  8
PLAN
 10
27.832231
 20
214.367802
 30
0.0
 11
119.81977
 21
214.367802
 31
0.0
  0
LINE
  8
PLAN
 10
26.605832
 20
199.367802
 30
0.0
 11
26.605832
 21
219.367802
 31
0.0
  0
LINE
  8
PLAN
 10
-73.394168
 20
199.367802
 30
0.0
 11
-11.394168
 21
199.367802
 31
0.0
  0
LINE
  8
PLAN
 10
-73.394168
 20
219.367802
 30
0.0
 11
-73.394168
 21
217.367802
 31
0.0
  0
LINE
  8
SIDE
 10
-73.394168
 20
135.190697
 30
0.0
 11
-73.394168
 21
133.190697
 31
0.0
  0
LINE
  8
SIDE
 10
-73.394168
 20
115.190697
 30
0.0
 11
-11.394168
 21
115.190697
 31
0.0
  0
LINE
  8
SIDE
 10
26.605832
 20
115.190697
 30
0.0
 11
26.605832
 21
135.190697
 31
0.0
  0
LINE
  8
SIDE
 10
27.277218
 20
130.190697
 30
0.0
 11
106.605832
 21
130.190697
 31
0.0
  0
LINE
  8
SIDE
 10
18.605832
 20
115.190697
 30
0.0
 11
18.605832
 21
135.190697
 31
0.0
  0
LINE
  8
SIDE
 10
-11.394168
 20
115.190697
 30
0.0
 11
-11.394168
 21
116.190697
 31
0.0
  0
ARC
  8
SIDE
 10
3.605832
 20
95.190697
 30
0.0
 40
25.0
 50
53.130102
 51
126.869898
  0
LINE
  8
SIDE
 10
18.605832
 20
115.190697
 30
0.0
 11
26.605832
 21
115.190697
 31
0.0
  0
ARC
  8
SIDE
 10
-43.394168
 20
135.190697
 30
0.0
 40
36.055513
 50
180.0
 51
213.690068
  0
LINE
  8
SIDE
 10
-68.394168
 20
121.190697
 30
0.0
 11
-16.394168
 21
121.190697
 31
0.0
  0
LINE
  8
SIDE
 10
-68.394168
 20
128.190697
 30
0.0
 11
-16.394168
 21
128.190697
 31
0.0
  0
LINE
  8
SIDE
 10
-73.394168
 20
116.190697
 30
0.0
 11
-73.394168
 21
115.190697
 31
0.0
  0
LINE
  8
SIDE
 10
-11.394168
 20
133.190697
 30
0.0
 11
-11.394168
 21
135.190697
 31
0.0
  0
ARC
  8
SIDE
 10
-68.394168
 20
133.190697
 30
0.0
 40
5.0
 50
180.0
 51
270.0
  0
ARC
  8
SIDE
 10
-16.394168
 20
133.190697
 30
0.0
 40
5.0
 50
270.0
 51
0.0
  0
ARC
  8
SIDE
 10
-68.394168
 20
116.190697
 30
0.0
 40
5.0
 50
90.0
 51
180.0
  0
ARC
  8
SIDE
 10
-16.394168
 20
116.190697
 30
0.0
 40
5.0
 50
0.0
 51
90.0
  0
LINE
  8
SIDE
 10
-73.394168
 20
115.190697
 30
0.0
 11
-73.394168
 21
135.000177
 31
0.0
  0
LINE
  8
SIDE
 10
-11.394168
 20
115.190697
 30
0.0
 11
-11.394168
 21
135.000177
 31
0.0
  0
LINE
  8
SIDE
 10
-11.394168
 20
155.171726
 30
0.0
 11
-11.394168
 21
135.362246
 31
0.0
  0
LINE
  8
SIDE
 10
-73.394168
 20
155.171726
 30
0.0
 11
-73.394168
 21
135.362246
 31
0.0
  0
ARC
  8
SIDE
 10
-16.394168
 20
154.171726
 30
0.0
 40
5.0
 50
270.0
 51
0.0
  0
ARC
  8
SIDE
 10
-68.394168
 20
154.171726
 30
0.0
 40
5.0
 50
180.0
 51
270.0
  0
ARC
  8
SIDE
 10
-16.394168
 20
137.171726
 30
0.0
 40
5.0
 50
0.0
 51
90.0
  0
ARC
  8
SIDE
 10
-68.394168
 20
137.171726
 30
0.0
 40
5.0
 50
90.0
 51
180.0
  0
LINE
  8
SIDE
 10
-11.394168
 20
137.171726
 30
0.0
 11
-11.394168
 21
135.171726
 31
0.0
  0
LINE
  8
SIDE
 10
-73.394168
 20
154.171726
 30
0.0
 11
-73.394168
 21
155.171726
 31
0.0
  0
LINE
  8
SIDE
 10
-68.394168
 20
142.171726
 30
0.0
 11
-16.394168
 21
142.171726
 31
0.0
  0
LINE
  8
SIDE
 10
-68.394168
 20
149.171726
 30
0.0
 11
-16.394168
 21
149.171726
 31
0.0
  0
ARC
  8
SIDE
 10
-43.394168
 20
135.171726
 30
0.0
 40
36.055513
 50
146.309932
 51
180.0
  0
LINE
  8
SIDE
 10
18.605832
 20
155.171726
 30
0.0
 11
26.605832
 21
155.171726
 31
0.0
  0
ARC
  8
SIDE
 10
3.605832
 20
175.171726
 30
0.0
 40
25.0
 50
233.130102
 51
306.869898
  0
LINE
  8
SIDE
 10
-11.394168
 20
155.171726
 30
0.0
 11
-11.394168
 21
154.171726
 31
0.0
  0
LINE
  8
SIDE
 10
18.605832
 20
155.171726
 30
0.0
 11
18.605832
 21
135.171726
 31
0.0
  0
LINE
  8
SIDE
 10
27.277218
 20
140.171726
 30
0.0
 11
106.605832
 21
140.171726
 31
0.0
  0
LINE
  8
SIDE
 10
26.605832
 20
155.171726
 30
0.0
 11
26.605832
 21
135.171726
 31
0.0
  0
LINE
  8
SIDE
 10
-73.394168
 20
155.171726
 30
0.0
 11
-11.394168
 21
155.171726
 31
0.0
  0
LINE
  8
SIDE
 10
-73.394168
 20
135.171726
 30
0.0
 11
-73.394168
 21
137.171726
 31
0.0
  0
LINE
  8
CENTER
 10
-73.896043
 20
135.362246
 30
0.0
 11
176.103957
 21
135.362246
 31
0.0
  0
LINE
  8
SIDE
 10
146.605832
 20
135.362246
 30
0.0
 11
146.605832
 21
136.362246
 31
0.0
  0
LINE
  8
SIDE
 10
146.605832
 20
136.362246
 30
0.0
 11
106.605832
 21
140.171726
 31
0.0
  0
LINE
  8
SIDE
 10
131.786822
 20
135.362246
 30
0.0
 11
131.786822
 21
137.773565
 31
0.0
  0
LINE
  8
SIDE
 10
131.786822
 20
135.362246
 30
0.0
 11
131.786822
 21
132.950928
 31
0.0
  0
LINE
  8
SIDE
 10
146.605832
 20
134.362246
 30
0.0
 11
106.605832
 21
130.552766
 31
0.0
  0
LINE
  8
SIDE
 10
146.605832
 20
135.362246
 30
0.0
 11
146.605832
 21
134.362246
 31
0.0
  0
LINE
  8
PLAN
 10
27.832231
 20
224.348832
 30
0.0
 11
26.346229
 21
224.348832
 31
0.0
  0
LINE
  8
PLAN
 10
27.832231
 20
214.367802
 30
0.0
 11
25.80912
 21
214.367802
 31
0.0
  0
LINE
  8
SIDE
 10
27.277218
 20
140.171726
 30
0.0
 11
26.346229
 21
140.171726
 31
0.0
  0
LINE
  8
SIDE
 10
27.277218
 20
130.190697
 30
0.0
 11
26.346229
 21
130.190697
 31
0.0
  0
CIRCLE
  8
REAR
 10
238.447393
 20
219.323672
 30
0.0
 40
27.42552
  0
ENDSEC
  0
EOF
