  0
SECTION
  2
HEADER
  9
$ACADVER
  1
AC1009
  9
$INSBASE
 10
0.0
 20
0.0
 30
0.0
  9
$EXTMIN
 10
-7.0
 20
-5.0
 30
0.0
  9
$EXTMAX
 10
90.0
 20
7.500012
 30
0.0
  9
$LIMMIN
 10
0.0
 20
0.0
  9
$LIMMAX
 10
12.0
 20
9.0
  9
$ORTHOMODE
 70
     0
  9
$REGENMODE
 70
     1
  9
$FILLMODE
 70
     1
  9
$QTEXTMODE
 70
     0
  9
$MIRRTEXT
 70
     1
  9
$DRAGMODE
 70
     2
  9
$LTSCALE
 40
1.0
  9
$OSMODE
 70
     0
  9
$ATTMODE
 70
     1
  9
$TEXTSIZE
 40
0.2
  9
$TRACEWID
 40
0.05
  9
$TEXTSTYLE
  7
STANDARD
  9
$CLAYER
  8
0
  9
$CELTYPE
  6
BYLAYER
  9
$CECOLOR
 62
   256
  9
$DIMSCALE
 40
1.0
  9
$DIMASZ
 40
0.18
  9
$DIMEXO
 40
0.06
  9
$DIMDLI
 40
0.38
  9
$DIMRND
 40
0.0
  9
$DIMDLE
 40
0.0
  9
$DIMEXE
 40
0.18
  9
$DIMTP
 40
0.0
  9
$DIMTM
 40
0.0
  9
$DIMTXT
 40
0.18
  9
$DIMCEN
 40
0.09
  9
$DIMTSZ
 40
0.0
  9
$DIMTOL
 70
     0
  9
$DIMLIM
 70
     0
  9
$DIMTIH
 70
     1
  9
$DIMTOH
 70
     1
  9
$DIMSE1
 70
     0
  9
$DIMSE2
 70
     0
  9
$DIMTAD
 70
     0
  9
$DIMZIN
 70
     0
  9
$DIMBLK
  1

  9
$DIMASO
 70
     1
  9
$DIMSHO
 70
     0
  9
$DIMPOST
  1

  9
$DIMAPOST
  1

  9
$DIMALT
 70
     0
  9
$DIMALTD
 70
     2
  9
$DIMALTF
 40
25.4
  9
$DIMLFAC
 40
1.0
  9
$DIMTOFL
 70
     0
  9
$DIMTVP
 40
0.0
  9
$DIMTIX
 70
     0
  9
$DIMSOXD
 70
     0
  9
$DIMSAH
 70
     0
  9
$DIMBLK1
  1

  9
$DIMBLK2
  1

  9
$DIMSTYLE
  2
*UNNAMED
  9
$DIMCLRD
 70
     0
  9
$DIMCLRE
 70
     0
  9
$DIMCLRT
 70
     0
  9
$DIMTFAC
 40
1.0
  9
$DIMGAP
 40
0.09
  9
$LUNITS
 70
     2
  9
$LUPREC
 70
     4
  9
$AXISMODE
 70
     0
  9
$AXISUNIT
 10
0.0
 20
0.0
  9
$SKETCHINC
 40
0.1
  9
$FILLETRAD
 40
0.0
  9
$AUNITS
 70
     0
  9
$AUPREC
 70
     0
  9
$MENU
  1
ACAD
  9
$ELEVATION
 40
0.0
  9
$PELEVATION
 40
0.0
  9
$THICKNESS
 40
0.0
  9
$LIMCHECK
 70
     0
  9
$BLIPMODE
 70
     1
  9
$CHAMFERA
 40
0.0
  9
$CHAMFERB
 40
0.0
  9
$SKPOLY
 70
     0
  9
$TDCREATE
 40
2447783.925549328
  9
$TDUPDATE
 40
2447783.925549328
  9
$TDINDWG
 40
0.0000000000
  9
$TDUSRTIMER
 40
0.0000000000
  9
$USRTIMER
 70
     1
  9
$ANGBASE
 50
0.0
  9
$ANGDIR
 70
     0
  9
$PDMODE
 70
     0
  9
$PDSIZE
 40
0.0
  9
$PLINEWID
 40
0.0
  9
$COORDS
 70
     0
  9
$SPLFRAME
 70
     0
  9
$SPLINETYPE
 70
     6
  9
$SPLINESEGS
 70
     8
  9
$ATTDIA
 70
     0
  9
$ATTREQ
 70
     1
  9
$HANDLING
 70
     0
  9
$HANDSEED
  5
0
  9
$SURFTAB1
 70
     6
  9
$SURFTAB2
 70
     6
  9
$SURFTYPE
 70
     6
  9
$SURFU
 70
     6
  9
$SURFV
 70
     6
  9
$UCSNAME
  2

  9
$UCSORG
 10
0.0
 20
0.0
 30
0.0
  9
$UCSXDIR
 10
1.0
 20
0.0
 30
0.0
  9
$UCSYDIR
 10
0.0
 20
1.0
 30
0.0
  9
$PUCSNAME
  2

  9
$PUCSORG
 10
0.0
 20
0.0
 30
0.0
  9
$PUCSXDIR
 10
1.0
 20
0.0
 30
0.0
  9
$PUCSYDIR
 10
0.0
 20
1.0
 30
0.0
  9
$USERI1
 70
     0
  9
$USERI2
 70
     0
  9
$USERI3
 70
     0
  9
$USERI4
 70
     0
  9
$USERI5
 70
     0
  9
$USERR1
 40
0.0
  9
$USERR2
 40
0.0
  9
$USERR3
 40
0.0
  9
$USERR4
 40
0.0
  9
$USERR5
 40
0.0
  9
$WORLDVIEW
 70
     1
  9
$SHADEDGE
 70
     3
  9
$SHADEDIF
 70
    70
  9
$TILEMODE
 70
     1
  9
$MAXACTVP
 70
    16
  9
$PINSBASE
 10
0.0
 20
0.0
 30
0.0
  9
$PLIMCHECK
 70
     0
  9
$PEXTMIN
 10
1.000000E+20
 20
1.000000E+20
 30
1.000000E+20
  9
$PEXTMAX
 10
-1.000000E+20
 20
-1.000000E+20
 30
-1.000000E+20
  9
$PLIMMIN
 10
0.0
 20
0.0
  9
$PLIMMAX
 10
12.0
 20
9.0
  9
$UNITMODE
 70
     0
  9
$VISRETAIN
 70
     0
  0
ENDSEC
  0
SECTION
  2
TABLES
  0
TABLE
  2
VPORT
 70
     2
  0
VPORT
  2
*ACTIVE
 70
     0
 10
0.0
 20
0.0
 11
1.0
 21
1.0
 12
20.0
 22
0.69808
 13
0.0
 23
0.0
 14
1.0
 24
1.0
 15
0.0
 25
0.0
 16
0.0
 26
0.0
 36
1.0
 17
0.0
 27
0.0
 37
0.0
 40
101.396161
 41
1.380723
 42
50.0
 43
0.0
 44
0.0
 50
0.0
 51
0.0
 71
     0
 72
   100
 73
     1
 74
     1
 75
     0
 76
     0
 77
     0
 78
     0
  0
ENDTAB
  0
TABLE
  2
LTYPE
 70
     1
  0
LTYPE
  2
CONTINUOUS
 70
    64
  3
Solid line
 72
    65
 73
     0
 40
0.0
  0
ENDTAB
  0
TABLE
  2
LAYER
 70
     8
  0
LAYER
  2
0
 70
     0
 62
     7
  6
CONTINUOUS
  0
LAYER
  2
PUNKTY_STAB
 70
     0
 62
     1
  6
CONTINUOUS
  0
LAYER
  2
POLACZENIA
 70
     0
 62
     7
  6
CONTINUOUS
  0
LAYER
  2
PUNKTY
 70
     0
 62
     1
  6
CONTINUOUS
  0
LAYER
  2
NR_PUNKTU
 70
     0
 62
     4
  6
CONTINUOUS
  0
LAYER
  2
NR_DZIALKI
 70
     0
 62
     5
  6
CONTINUOUS
  0
LAYER
  2
OPISY
 70
     0
 62
     7
  6
CONTINUOUS
  0
LAYER
  2
KONTURY
 70
     0
 62
     1
  6
CONTINUOUS
  0
ENDTAB
  0
TABLE
  2
STYLE
 70
     1
  0
STYLE
  2
STANDARD
 70
     0
 40
0.0
 41
1.0
 50
0.0
 71
     0
 42
0.2
  3
txt
  4

  0
ENDTAB
  0
TABLE
  2
VIEW
 70
     0
  0
ENDTAB
  0
TABLE
  2
UCS
 70
     0
  0
ENDTAB
  0
TABLE
  2
APPID
 70
     1
  0
APPID
  2
ACAD
 70
    64
  0
ENDTAB
  0
TABLE
  2
DIMSTYLE
 70
     0
  0
ENDTAB
  0
ENDSEC
  0
SECTION
  2
BLOCKS
  0
BLOCK
  8
0
  2
ARM
 70
    64
 10
0.0
 20
0.0
 30
0.0
  3
ARM
  0
CIRCLE
  8
0
 10
0.0
 20
0.0
 30
0.0
 40
0.125
  0
POINT
  8
PUNKTY_STAB
 10
0.885
 20
0.475
 30
0.0
  0
ENDBLK
  8
0
  0
BLOCK
  8
0
  2
BGB
 70
    64
 10
0.0
 20
0.0
 30
0.0
  3
BGB
  0
ARC
  8
0
 10
1.5
 20
0.000012
 30
0.0
 40
1.5
 50
120.0
 51
180.000454
  0
ARC
  8
0
 10
-1.5
 20
0.000012
 30
0.0
 40
1.5
 50
359.999546
 51
60.0
  0
ENDBLK
  8
0
  0
BLOCK
  8
0
  2
BUI
 70
    64
 10
0.0
 20
0.0
 30
0.0
  3
BUI
  0
CIRCLE
  8
0
 10
0.0
 20
0.0
 30
0.0
 40
0.25
  0
ENDBLK
  8
0
  0
BLOCK
  8
0
  2
BUO
 70
    64
 10
0.0
 20
0.0
 30
0.0
  3
BUO
  0
LINE
  8
0
 10
-0.25
 20
0.125
 30
0.0
 11
0.25
 21
0.125
 31
0.0
  0
LINE
  8
0
 10
-0.25
 20
-0.125
 30
0.0
 11
0.25
 21
-0.125
 31
0.0
  0
LINE
  8
0
 10
-0.25
 20
-0.00225
 30
0.0
 11
0.25
 21
-0.00225
 31
0.0
  0
LINE
  8
0
 10
-0.25
 20
0.25
 30
0.0
 11
-0.25
 21
-0.25
 31
0.0
  0
LINE
  8
0
 10
0.25
 20
0.25
 30
0.0
 11
-0.25
 21
0.25
 31
0.0
  0
LINE
  8
0
 10
0.25
 20
-0.25
 30
0.0
 11
0.25
 21
0.25
 31
0.0
  0
LINE
  8
0
 10
-0.25
 20
-0.25
 30
0.0
 11
0.25
 21
-0.25
 31
0.0
  0
ENDBLK
  8
0
  0
BLOCK
  8
0
  2
CHR
 70
    64
 10
0.0
 20
0.0
 30
0.0
  3
CHR
  0
LINE
  8
0
 10
1.5
 20
0.82845
 30
0.0
 11
2.5
 21
0.82845
 31
0.0
  0
LINE
  8
0
 10
2.0
 20
1.32845
 30
0.0
 11
2.0
 21
-0.17155
 31
0.0
  0
LINE
  8
0
 10
0.0
 20
-0.67155
 30
0.0
 11
0.0
 21
-2.17155
 31
0.0
  0
LINE
  8
0
 10
-0.5
 20
-1.17155
 30
0.0
 11
0.5
 21
-1.17155
 31
0.0
  0
LINE
  8
0
 10
-2.0
 20
1.32845
 30
0.0
 11
-2.0
 21
-0.17155
 31
0.0
  0
LINE
  8
0
 10
-2.5
 20
0.82845
 30
0.0
 11
-1.5
 21
0.82845
 31
0.0
  0
ENDBLK
  8
0
  0
BLOCK
  8
0
  2
CIN
 70
    64
 10
0.0
 20
0.0
 30
0.0
  3
CIN
  0
LINE
  8
0
 10
1.5
 20
-0.17155
 30
0.0
 11
2.5
 21
-0.17155
 31
0.0
  0
LINE
  8
0
 10
2.0
 20
1.32845
 30
0.0
 11
2.0
 21
-0.17155
 31
0.0
  0
LINE
  8
0
 10
-0.5
 20
-2.17155
 30
0.0
 11
0.5
 21
-2.17155
 31
0.0
  0
LINE
  8
0
 10
0.0
 20
-0.67155
 30
0.0
 11
0.0
 21
-2.17155
 31
0.0
  0
LINE
  8
0
 10
-2.5
 20
-0.17155
 30
0.0
 11
-1.5
 21
-0.17155
 31
0.0
  0
LINE
  8
0
 10
-2.0
 20
1.32845
 30
0.0
 11
-2.0
 21
-0.17155
 31
0.0
  0
ENDBLK
  8
0
  0
BLOCK
  8
0
  2
CKO
 70
    64
 10
0.0
 20
0.0
 30
0.0
  3
CKO
  0
LINE
  8
0
 10
-0.5
 20
-2.17155
 30
0.0
 11
0.5
 21
-2.17155
 31
0.0
  0
LINE
  8
0
 10
1.5
 20
0.82845
 30
0.0
 11
2.5
 21
0.82845
 31
0.0
  0
LINE
  8
0
 10
2.0
 20
1.32845
 30
0.0
 11
2.0
 21
-0.17155
 31
0.0
  0
LINE
  8
0
 10
-2.0
 20
1.32845
 30
0.0
 11
-2.0
 21
-0.17155
 31
0.0
  0
LINE
  8
0
 10
-2.5
 20
0.82845
 30
0.0
 11
-1.5
 21
0.82845
 31
0.0
  0
LINE
  8
0
 10
0.0
 20
-0.67155
 30
0.0
 11
0.0
 21
-2.17155
 31
0.0
  0
ENDBLK
  8
0
  0
BLOCK
  8
0
  2
CWO
 70
    64
 10
0.0
 20
0.0
 30
0.0
  3
CWO
  0
LINE
  8
0
 10
-1.65
 20
0.79165
 30
0.0
 11
-0.95
 21
0.79165
 31
0.0
  0
LINE
  8
0
 10
-1.0
 20
-0.83335
 30
0.0
 11
2.0
 21
1.66665
 31
0.0
  0
LINE
  8
0
 10
-2.0
 20
1.66665
 30
0.0
 11
1.0
 21
-0.83335
 31
0.0
  0
LINE
  8
0
 10
-1.33335
 20
0.0
 30
0.0
 11
1.33335
 21
0.0
 31
0.0
  0
LINE
  8
0
 10
-0.5
 20
0.41665
 30
0.0
 11
-1.5
 21
0.41665
 31
0.0
  0
LINE
  8
0
 10
1.5
 20
0.41665
 30
0.0
 11
0.5
 21
0.41665
 31
0.0
  0
LINE
  8
0
 10
0.95
 20
0.79165
 30
0.0
 11
1.65
 21
0.79165
 31
0.0
  0
LINE
  8
0
 10
1.4
 20
1.16665
 30
0.0
 11
1.8
 21
1.16665
 31
0.0
  0
LINE
  8
0
 10
-1.8
 20
1.16665
 30
0.0
 11
-1.4
 21
1.16665
 31
0.0
  0
LINE
  8
0
 10
2.0
 20
1.66665
 30
0.0
 11
-1.0
 21
-0.83335
 31
0.0
  0
LINE
  8
0
 10
-2.0
 20
1.66665
 30
0.0
 11
1.0
 21
-0.83335
 31
0.0
  0
ENDBLK
  8
0
  0
BLOCK
  8
0
  2
DIG
 70
    64
 10
0.0
 20
0.0
 30
0.0
  3
DIG
  0
CIRCLE
  8
0
 10
0.0
 20
0.0
 30
0.0
 40
0.045
  0
LINE
  8
0
 10
0.1886
 20
-0.2529
 30
0.0
 11
0.01025
 21
-0.82585
 31
0.0
  0
LINE
  8
0
 10
0.7886
 20
-0.24545
 30
0.0
 11
0.1886
 21
-0.2529
 31
0.0
  0
LINE
  8
0
 10
0.2988
 20
0.1012
 30
0.0
 11
0.7886
 21
-0.24545
 31
0.0
  0
LINE
  8
0
 10
0.4771
 20
0.67415
 30
0.0
 11
0.2988
 21
0.1012
 31
0.0
  0
LINE
  8
0
 10
-0.0039
 20
0.31545
 30
0.0
 11
0.4771
 21
0.67415
 31
0.0
  0
LINE
  8
0
 10
-0.4937
 20
0.6621
 30
0.0
 11
-0.0039
 21
0.31545
 31
0.0
  0
LINE
  8
0
 10
-0.3012
 20
0.09375
 30
0.0
 11
-0.4937
 21
0.6621
 31
0.0
  0
LINE
  8
0
 10
-0.78225
 20
-0.26495
 30
0.0
 11
-0.3012
 21
0.09375
 31
0.0
  0
LINE
  8
0
 10
-0.18225
 20
-0.2575
 30
0.0
 11
-0.78225
 21
-0.26495
 31
0.0
  0
LINE
  8
0
 10
0.01025
 20
-0.82585
 30
0.0
 11
-0.18225
 21
-0.2575
 31
0.0
  0
ENDBLK
  8
0
  0
BLOCK
  8
0
  2
DIN
 70
    64
 10
0.0
 20
0.0
 30
0.0
  3
DIN
  0
LINE
  8
0
 10
0.1886
 20
-0.2529
 30
0.0
 11
0.01025
 21
-0.82585
 31
0.0
  0
LINE
  8
0
 10
0.7886
 20
-0.24545
 30
0.0
 11
0.1886
 21
-0.2529
 31
0.0
  0
LINE
  8
0
 10
0.2988
 20
0.1012
 30
0.0
 11
0.7886
 21
-0.24545
 31
0.0
  0
LINE
  8
0
 10
0.4771
 20
0.67415
 30
0.0
 11
0.2988
 21
0.1012
 31
0.0
  0
LINE
  8
0
 10
-0.0039
 20
0.31545
 30
0.0
 11
0.4771
 21
0.67415
 31
0.0
  0
LINE
  8
0
 10
-0.4937
 20
0.6621
 30
0.0
 11
-0.0039
 21
0.31545
 31
0.0
  0
LINE
  8
0
 10
-0.3012
 20
0.09375
 30
0.0
 11
-0.4937
 21
0.6621
 31
0.0
  0
LINE
  8
0
 10
-0.78225
 20
-0.26495
 30
0.0
 11
-0.3012
 21
0.09375
 31
0.0
  0
LINE
  8
0
 10
-0.18225
 20
-0.2575
 30
0.0
 11
-0.78225
 21
-0.26495
 31
0.0
  0
LINE
  8
0
 10
0.01025
 20
-0.82585
 30
0.0
 11
-0.18225
 21
-0.2575
 31
0.0
  0
ENDBLK
  8
0
  0
BLOCK
  8
0
  2
DIP
 70
    64
 10
0.0
 20
0.0
 30
0.0
  3
DIP
  0
CIRCLE
  8
0
 10
0.0
 20
0.0
 30
0.0
 40
0.25
  0
LINE
  8
0
 10
-0.4048
 20
0.1402
 30
0.0
 11
-0.64985
 21
0.89445
 31
0.0
  0
LINE
  8
0
 10
-1.05145
 20
-0.34165
 30
0.0
 11
-0.4048
 21
0.1402
 31
0.0
  0
LINE
  8
0
 10
-0.2482
 20
-0.34165
 30
0.0
 11
-1.05145
 21
-0.34165
 31
0.0
  0
LINE
  8
0
 10
0.0
 20
-1.10555
 30
0.0
 11
-0.2482
 21
-0.34165
 31
0.0
  0
LINE
  8
0
 10
0.2482
 20
-0.34165
 30
0.0
 11
0.0
 21
-1.10555
 31
0.0
  0
LINE
  8
0
 10
1.05145
 20
-0.34165
 30
0.0
 11
0.2482
 21
-0.34165
 31
0.0
  0
LINE
  8
0
 10
0.38785
 20
0.1405
 30
0.0
 11
1.05145
 21
-0.34165
 31
0.0
  0
LINE
  8
0
 10
0.627
 20
0.90895
 30
0.0
 11
0.38785
 21
0.1405
 31
0.0
  0
LINE
  8
0
 10
-0.01325
 20
0.4319
 30
0.0
 11
0.627
 21
0.90895
 31
0.0
  0
LINE
  8
0
 10
-0.64985
 20
0.89445
 30
0.0
 11
-0.01325
 21
0.4319
 31
0.0
  0
ENDBLK
  8
0
  0
BLOCK
  8
0
  2
DLI
 70
    64
 10
0.0
 20
0.0
 30
0.0
  3
DLI
  0
CIRCLE
  8
0
 10
0.0
 20
0.0
 30
0.0
 40
0.045
  0
ARC
  8
0
 10
0.0
 20
0.375056
 30
0.0
 40
0.375
 50
30.140124
 51
149.859876
  0
ARC
  8
0
 10
0.356659
 20
0.115892
 30
0.0
 40
0.375
 50
318.139977
 51
77.855535
  0
ARC
  8
0
 10
0.220404
 20
-0.303384
 30
0.0
 40
0.375
 50
246.145772
 51
5.851818
  0
ARC
  8
0
 10
-0.220404
 20
-0.303384
 30
0.0
 40
0.375
 50
174.148182
 51
293.854228
  0
ARC
  8
0
 10
-0.356659
 20
0.115892
 30
0.0
 40
0.375
 50
102.144465
 51
221.860023
  0
ENDBLK
  8
0
  0
BLOCK
  8
0
  2
DLN
 70
    64
 10
0.0
 20
0.0
 30
0.0
  3
DLN
  0
ARC
  8
0
 10
0.220404
 20
-0.303384
 30
0.0
 40
0.375
 50
246.145772
 51
5.851818
  0
ARC
  8
0
 10
-0.220404
 20
-0.303384
 30
0.0
 40
0.375
 50
174.148182
 51
293.854228
  0
ARC
  8
0
 10
0.0
 20
0.375056
 30
0.0
 40
0.375
 50
30.140124
 51
149.859876
  0
ARC
  8
0
 10
0.356659
 20
0.115892
 30
0.0
 40
0.375
 50
318.139977
 51
77.855535
  0
ARC
  8
0
 10
-0.356659
 20
0.115892
 30
0.0
 40
0.375
 50
102.144465
 51
221.860023
  0
ENDBLK
  8
0
  0
BLOCK
  8
0
  2
DLP
 70
    64
 10
0.0
 20
0.0
 30
0.0
  3
DLP
  0
ARC
  8
0
 10
-0.293916
 20
-0.404531
 30
0.0
 40
0.5
 50
176.085821
 51
291.915118
  0
ARC
  8
0
 10
0.293916
 20
-0.404531
 30
0.0
 40
0.5
 50
248.084882
 51
3.914179
  0
ARC
  8
0
 10
0.475525
 20
0.154493
 30
0.0
 40
0.5
 50
320.089763
 51
75.909716
  0
ARC
  8
0
 10
0.0
 20
0.500013
 30
0.0
 40
0.5
 50
32.091581
 51
147.908419
  0
ARC
  8
0
 10
-0.475525
 20
0.154493
 30
0.0
 40
0.5
 50
104.090284
 51
219.910237
  0
CIRCLE
  8
0
 10
0.0
 20
0.0
 30
0.0
 40
0.25
  0
ENDBLK
  8
0
  0
BLOCK
  8
0
  2
FIG
 70
    64
 10
0.0
 20
0.0
 30
0.0
  3
FIG
  0
LINE
  8
0
 10
-0.5
 20
0.25
 30
0.0
 11
0.5
 21
0.25
 31
0.0
  0
LINE
  8
0
 10
0.0
 20
0.75
 30
0.0
 11
0.0
 21
-0.75
 31
0.0
  0
ENDBLK
  8
0
  0
BLOCK
  8
0
  2
FIG_2
 70
    64
 10
0.0
 20
0.0
 30
0.0
  3
FIG_2
  0
LINE
  8
0
 10
-0.5
 20
1.0
 30
0.0
 11
0.5
 21
1.0
 31
0.0
  0
LINE
  8
0
 10
0.0
 20
0.5
 30
0.0
 11
0.0
 21
1.5
 31
0.0
  0
LINE
  8
0
 10
0.5
 20
-0.5
 30
0.0
 11
0.5
 21
0.5
 31
0.0
  0
LINE
  8
0
 10
-0.5
 20
-0.5
 30
0.0
 11
0.5
 21
-0.5
 31
0.0
  0
LINE
  8
0
 10
-0.5
 20
0.5
 30
0.0
 11
-0.5
 21
-0.5
 31
0.0
  0
LINE
  8
0
 10
0.5
 20
0.5
 30
0.0
 11
-0.5
 21
0.5
 31
0.0
  0
ENDBLK
  8
0
  0
BLOCK
  8
0
  2
FON
 70
    64
 10
0.0
 20
0.0
 30
0.0
  3
FON
  0
ARC
  8
0
 10
0.5
 20
1.499981
 30
0.0
 40
0.5
 50
41.409622
 51
179.997833
  0
ARC
  8
0
 10
-0.5
 20
1.499981
 30
0.0
 40
0.5
 50
0.002167
 51
138.590378
  0
LINE
  8
0
 10
0.0
 20
0.5
 30
0.0
 11
0.0
 21
1.5
 31
0.0
  0
CIRCLE
  8
0
 10
0.0
 20
0.0
 30
0.0
 40
0.25
  0
ENDBLK
  8
0
  0
BLOCK
  8
0
  2
GDS
 70
    64
 10
0.0
 20
0.0
 30
0.0
  3
GDS
  0
LINE
  8
0
 10
0.73335
 20
-0.36855
 30
0.0
 11
0.56665
 21
-0.4143
 31
0.0
  0
LINE
  8
0
 10
0.83335
 20
-0.2543
 30
0.0
 11
0.73335
 21
-0.36855
 31
0.0
  0
LINE
  8
0
 10
0.9
 20
-0.11715
 30
0.0
 11
0.83335
 21
-0.2543
 31
0.0
  0
LINE
  8
0
 10
0.9
 20
0.20285
 30
0.0
 11
0.9
 21
-0.11715
 31
0.0
  0
LINE
  8
0
 10
0.83335
 20
0.34
 30
0.0
 11
0.9
 21
0.20285
 31
0.0
  0
LINE
  8
0
 10
0.73335
 20
0.4543
 30
0.0
 11
0.83335
 21
0.34
 31
0.0
  0
LINE
  8
0
 10
0.56665
 20
0.5
 30
0.0
 11
0.73335
 21
0.4543
 31
0.0
  0
LINE
  8
0
 10
0.33335
 20
0.5
 30
0.0
 11
0.56665
 21
0.5
 31
0.0
  0
LINE
  8
0
 10
0.16665
 20
0.4543
 30
0.0
 11
0.33335
 21
0.5
 31
0.0
  0
LINE
  8
0
 10
0.06665
 20
0.34
 30
0.0
 11
0.16665
 21
0.4543
 31
0.0
  0
LINE
  8
0
 10
0.0
 20
0.20285
 30
0.0
 11
0.06665
 21
0.34
 31
0.0
  0
LINE
  8
0
 10
0.0
 20
-0.11715
 30
0.0
 11
0.0
 21
0.20285
 31
0.0
  0
LINE
  8
0
 10
-0.06665
 20
-0.2543
 30
0.0
 11
0.0
 21
-0.11715
 31
0.0
  0
LINE
  8
0
 10
-0.16665
 20
-0.36855
 30
0.0
 11
-0.06665
 21
-0.2543
 31
0.0
  0
LINE
  8
0
 10
-0.3
 20
-0.4143
 30
0.0
 11
-0.16665
 21
-0.36855
 31
0.0
  0
LINE
  8
0
 10
-0.56665
 20
-0.4143
 30
0.0
 11
-0.3
 21
-0.4143
 31
0.0
  0
LINE
  8
0
 10
-0.73335
 20
-0.36855
 30
0.0
 11
-0.56665
 21
-0.4143
 31
0.0
  0
LINE
  8
0
 10
-0.83335
 20
-0.2543
 30
0.0
 11
-0.73335
 21
-0.36855
 31
0.0
  0
LINE
  8
0
 10
-0.9
 20
-0.11715
 30
0.0
 11
-0.83335
 21
-0.2543
 31
0.0
  0
LINE
  8
0
 10
-0.9
 20
0.20285
 30
0.0
 11
-0.9
 21
-0.11715
 31
0.0
  0
LINE
  8
0
 10
-0.83335
 20
0.34
 30
0.0
 11
-0.9
 21
0.20285
 31
0.0
  0
LINE
  8
0
 10
-0.73335
 20
0.4543
 30
0.0
 11
-0.83335
 21
0.34
 31
0.0
  0
LINE
  8
0
 10
-0.56665
 20
0.5
 30
0.0
 11
-0.73335
 21
0.4543
 31
0.0
  0
ENDBLK
  8
0
  0
BLOCK
  8
0
  2
GRO
 70
    64
 10
0.0
 20
0.0
 30
0.0
  3
GRO
  0
CIRCLE
  8
0
 10
0.0
 20
0.0
 30
0.0
 40
0.045
  0
ENDBLK
  8
0
  0
BLOCK
  8
0
  2
GRP
 70
    64
 10
0.0
 20
0.0
 30
0.0
  3
GRP
  0
CIRCLE
  8
0
 10
0.0
 20
0.0
 30
0.0
 40
0.25
  0
ENDBLK
  8
0
  0
BLOCK
  8
0
  2
GRT
 70
    64
 10
0.0
 20
0.0
 30
0.0
  3
GRT
  0
CIRCLE
  8
0
 10
0.0
 20
0.0
 30
0.0
 40
0.25
  0
ENDBLK
  8
0
  0
BLOCK
  8
0
  2
HYP
 70
    64
 10
0.0
 20
0.0
 30
0.0
  3
HYP
  0
LINE
  8
0
 10
0.0
 20
0.5
 30
0.0
 11
0.0
 21
1.0
 31
0.0
  0
LINE
  8
0
 10
0.0
 20
1.0
 30
0.0
 11
-0.35355
 21
0.64645
 31
0.0
  0
LINE
  8
0
 10
0.0
 20
1.0
 30
0.0
 11
0.35355
 21
0.64645
 31
0.0
  0
CIRCLE
  8
0
 10
0.0
 20
0.0
 30
0.0
 40
0.25
  0
ENDBLK
  8
0
  0
BLOCK
  8
0
  2
HYZ
 70
    64
 10
0.0
 20
0.0
 30
0.0
  3
HYZ
  0
LINE
  8
0
 10
0.0
 20
1.0
 30
0.0
 11
-0.5
 21
1.0
 31
0.0
  0
LINE
  8
0
 10
0.0
 20
0.5
 30
0.0
 11
0.0
 21
1.0
 31
0.0
  0
LINE
  8
0
 10
0.0
 20
1.0
 30
0.0
 11
0.35355
 21
0.64645
 31
0.0
  0
CIRCLE
  8
0
 10
0.0
 20
0.0
 30
0.0
 40
0.25
  0
ENDBLK
  8
0
  0
BLOCK
  8
0
  2
KCI
 70
    64
 10
0.0
 20
0.0
 30
0.0
  3
KCI
  0
LINE
  8
0
 10
1.585
 20
-0.25
 30
0.0
 11
2.5
 21
0.0
 31
0.0
  0
LINE
  8
0
 10
1.585
 20
0.25
 30
0.0
 11
2.5
 21
0.0
 31
0.0
  0
LINE
  8
0
 10
0.0
 20
0.0
 30
0.0
 11
1.585
 21
0.0
 31
0.0
  0
ENDBLK
  8
0
  0
BLOCK
  8
0
  2
KMN
 70
    64
 10
0.0
 20
0.0
 30
0.0
  3
KMN
  0
LINE
  8
0
 10
-0.46765
 20
-0.58635
 30
0.0
 11
0.46765
 21
-0.58635
 31
0.0
  0
LINE
  8
0
 10
-0.64285
 20
-0.38635
 30
0.0
 11
0.64285
 21
-0.38635
 31
0.0
  0
LINE
  8
0
 10
-0.7265
 20
-0.18635
 30
0.0
 11
0.7265
 21
-0.18635
 31
0.0
  0
LINE
  8
0
 10
-0.7499
 20
0.01365
 30
0.0
 11
0.7499
 21
0.01365
 31
0.0
  0
LINE
  8
0
 10
-0.7189
 20
0.21365
 30
0.0
 11
0.7189
 21
0.21365
 31
0.0
  0
LINE
  8
0
 10
-0.6256
 20
0.41365
 30
0.0
 11
0.6256
 21
0.41365
 31
0.0
  0
LINE
  8
0
 10
-0.4312
 20
0.61365
 30
0.0
 11
0.4312
 21
0.61365
 31
0.0
  0
CIRCLE
  8
0
 10
0.0
 20
0.0
 30
0.0
 40
0.75
  0
ENDBLK
  8
0
  0
BLOCK
  8
0
  2
KRA
 70
    64
 10
0.0
 20
0.0
 30
0.0
  3
KRA
  0
LINE
  8
0
 10
0.175
 20
-0.25
 30
0.0
 11
0.175
 21
0.25
 31
0.0
  0
LINE
  8
0
 10
-0.175
 20
-0.25
 30
0.0
 11
-0.175
 21
0.25
 31
0.0
  0
LINE
  8
0
 10
0.525
 20
-0.25
 30
0.0
 11
-0.525
 21
-0.25
 31
0.0
  0
LINE
  8
0
 10
0.525
 20
0.25
 30
0.0
 11
0.525
 21
-0.25
 31
0.0
  0
LINE
  8
0
 10
-0.525
 20
0.25
 30
0.0
 11
0.525
 21
0.25
 31
0.0
  0
LINE
  8
0
 10
-0.525
 20
-0.25
 30
0.0
 11
-0.525
 21
0.25
 31
0.0
  0
ENDBLK
  8
0
  0
BLOCK
  8
0
  2
KRW
 70
    64
 10
0.0
 20
0.0
 30
0.0
  3
KRW
  0
CIRCLE
  8
0
 10
0.0
 20
0.0
 30
0.0
 40
0.045
  0
LINE
  8
0
 10
-0.5
 20
0.25
 30
0.0
 11
-0.5
 21
-0.25
 31
0.0
  0
LINE
  8
0
 10
0.5
 20
0.25
 30
0.0
 11
-0.5
 21
0.25
 31
0.0
  0
LINE
  8
0
 10
0.5
 20
-0.25
 30
0.0
 11
0.5
 21
0.25
 31
0.0
  0
LINE
  8
0
 10
-0.5
 20
-0.25
 30
0.0
 11
0.5
 21
-0.25
 31
0.0
  0
ENDBLK
  8
0
  0
BLOCK
  8
0
  2
KRZ
 70
    64
 10
0.0
 20
0.0
 30
0.0
  3
KRZ
  0
LINE
  8
0
 10
-0.5
 20
1.0
 30
0.0
 11
0.5
 21
1.0
 31
0.0
  0
LINE
  8
0
 10
0.0
 20
0.0
 30
0.0
 11
1.0
 21
0.0
 31
0.0
  0
LINE
  8
0
 10
0.0
 20
1.5
 30
0.0
 11
0.0
 21
0.0
 31
0.0
  0
ENDBLK
  8
0
  0
BLOCK
  8
0
  2
KTW
 70
    64
 10
0.0
 20
0.0
 30
0.0
  3
KTW
  0
LINE
  8
0
 10
0.75
 20
0.75
 30
0.0
 11
-0.75
 21
-0.75
 31
0.0
  0
LINE
  8
0
 10
-0.75
 20
0.75
 30
0.0
 11
0.75
 21
-0.75
 31
0.0
  0
ENDBLK
  8
0
  0
BLOCK
  8
0
  2
LAT
 70
    64
 10
0.0
 20
0.0
 30
0.0
  3
LAT
  0
LINE
  8
0
 10
0.0
 20
0.75
 30
0.0
 11
0.0
 21
1.25
 31
0.0
  0
LINE
  8
0
 10
0.0
 20
-0.75
 30
0.0
 11
0.0
 21
-1.25
 31
0.0
  0
LINE
  8
0
 10
0.75
 20
0.0
 30
0.0
 11
1.25
 21
0.0
 31
0.0
  0
LINE
  8
0
 10
-1.25
 20
0.0
 30
0.0
 11
-0.75
 21
0.0
 31
0.0
  0
ENDBLK
  8
0
  0
BLOCK
  8
0
  2
LSI
 70
    64
 10
0.0
 20
0.0
 30
0.0
  3
LSI
  0
LINE
  8
0
 10
1.25
 20
-1.25
 30
0.0
 11
2.0
 21
-1.25
 31
0.0
  0
LINE
  8
0
 10
1.25
 20
-0.5
 30
0.0
 11
1.25
 21
-1.25
 31
0.0
  0
LINE
  8
0
 10
1.25
 20
1.25
 30
0.0
 11
2.0
 21
-0.5
 31
0.0
  0
LINE
  8
0
 10
0.5
 20
-0.5
 30
0.0
 11
1.25
 21
1.25
 31
0.0
  0
LINE
  8
0
 10
-1.25
 20
1.25
 30
0.0
 11
-0.5
 21
1.25
 31
0.0
  0
LINE
  8
0
 10
-1.25
 20
2.0
 30
0.0
 11
-1.25
 21
1.25
 31
0.0
  0
LINE
  8
0
 10
-1.25
 20
3.75
 30
0.0
 11
-0.5
 21
2.0
 31
0.0
  0
LINE
  8
0
 10
-2.0
 20
2.0
 30
0.0
 11
-1.25
 21
3.75
 31
0.0
  0
ENDBLK
  8
0
  0
BLOCK
  8
0
  2
LSL
 70
    64
 10
0.0
 20
0.0
 30
0.0
  3
LSL
  0
ARC
  8
0
 10
-1.25
 20
2.875006
 30
0.0
 40
0.875
 50
282.873544
 51
257.126456
  0
LINE
  8
0
 10
-1.25
 20
1.25
 30
0.0
 11
-0.5
 21
1.25
 31
0.0
  0
LINE
  8
0
 10
-1.25
 20
2.0
 30
0.0
 11
-1.25
 21
1.25
 31
0.0
  0
ARC
  8
0
 10
1.25
 20
0.375006
 30
0.0
 40
0.875
 50
282.873544
 51
257.126456
  0
LINE
  8
0
 10
1.25
 20
-1.25
 30
0.0
 11
2.0
 21
-1.25
 31
0.0
  0
LINE
  8
0
 10
1.25
 20
-0.5
 30
0.0
 11
1.25
 21
-1.25
 31
0.0
  0
ENDBLK
  8
0
  0
BLOCK
  8
0
  2
LSM
 70
    64
 10
0.0
 20
0.0
 30
0.0
  3
LSM
  0
ARC
  8
0
 10
1.25
 20
0.375006
 30
0.0
 40
0.875
 50
282.873544
 51
257.126456
  0
LINE
  8
0
 10
1.25
 20
-1.25
 30
0.0
 11
2.0
 21
-1.25
 31
0.0
  0
LINE
  8
0
 10
1.25
 20
-0.5
 30
0.0
 11
1.25
 21
-1.25
 31
0.0
  0
LINE
  8
0
 10
-1.25
 20
1.25
 30
0.0
 11
-0.5
 21
1.25
 31
0.0
  0
LINE
  8
0
 10
-1.25
 20
2.0
 30
0.0
 11
-1.25
 21
1.25
 31
0.0
  0
LINE
  8
0
 10
-1.25
 20
3.75
 30
0.0
 11
-0.5
 21
2.0
 31
0.0
  0
LINE
  8
0
 10
-2.0
 20
2.0
 30
0.0
 11
-1.25
 21
3.75
 31
0.0
  0
ENDBLK
  8
0
  0
BLOCK
  8
0
  2
LZA
 70
    64
 10
0.0
 20
0.0
 30
0.0
  3
LZA
  0
LINE
  8
0
 10
0.0
 20
-1.96445
 30
0.0
 11
0.5
 21
-1.96445
 31
0.0
  0
CIRCLE
  8
0
 10
0.0
 20
-1.46445
 30
0.0
 40
0.5
  0
LINE
  8
0
 10
2.5
 20
0.53555
 30
0.0
 11
3.0
 21
0.53555
 31
0.0
  0
CIRCLE
  8
0
 10
2.5
 20
1.03555
 30
0.0
 40
0.5
  0
LINE
  8
0
 10
-2.5
 20
0.53555
 30
0.0
 11
-2.0
 21
0.53555
 31
0.0
  0
CIRCLE
  8
0
 10
-2.5
 20
1.03555
 30
0.0
 40
0.5
  0
ENDBLK
  8
0
  0
BLOCK
  8
0
  2
MOK
 70
    64
 10
0.0
 20
0.0
 30
0.0
  3
MOK
  0
LINE
  8
0
 10
1.0
 20
-0.5
 30
0.0
 11
-1.5
 21
-0.5
 31
0.0
  0
LINE
  8
0
 10
2.5
 20
0.0
 30
0.0
 11
0.0
 21
0.0
 31
0.0
  0
LINE
  8
0
 10
-1.0
 20
0.5
 30
0.0
 11
1.5
 21
0.5
 31
0.0
  0
ENDBLK
  8
0
  0
BLOCK
  8
0
  2
MSZ
 70
    64
 10
0.0
 20
0.0
 30
0.0
  3
MSZ
  0
CIRCLE
  8
0
 10
0.0
 20
0.0
 30
0.0
 40
0.25
  0
ENDBLK
  8
0
  0
BLOCK
  8
0
  2
MUF
 70
    64
 10
0.0
 20
0.0
 30
0.0
  3
MUF
  0
LINE
  8
0
 10
0.0
 20
-0.5
 30
0.0
 11
-1.0
 21
0.0
 31
0.0
  0
LINE
  8
0
 10
1.0
 20
0.0
 30
0.0
 11
0.0
 21
-0.5
 31
0.0
  0
LINE
  8
0
 10
0.0
 20
0.5
 30
0.0
 11
1.0
 21
0.0
 31
0.0
  0
LINE
  8
0
 10
-1.0
 20
0.0
 30
0.0
 11
0.0
 21
0.5
 31
0.0
  0
ENDBLK
  8
0
  0
BLOCK
  8
0
  2
ODB
 70
    64
 10
0.0
 20
0.0
 30
0.0
  3
ODB
  0
CIRCLE
  8
0
 10
0.0
 20
1.3995
 30
0.0
 40
0.25
  0
CIRCLE
  8
0
 10
0.375
 20
0.75
 30
0.0
 40
0.25
  0
CIRCLE
  8
0
 10
-0.375
 20
0.75
 30
0.0
 40
0.25
  0
ENDBLK
  8
0
  0
BLOCK
  8
0
  2
OPJ
 70
    64
 10
0.0
 20
0.0
 30
0.0
  3
OPJ
  0
LINE
  8
0
 10
-0.0946
 20
-2.1455
 30
0.0
 11
0.0946
 21
-2.1455
 31
0.0
  0
CIRCLE
  8
0
 10
0.0
 20
0.0
 30
0.0
 40
0.045
  0
LINE
  8
0
 10
-0.15235
 20
-2.0455
 30
0.0
 11
0.15235
 21
-2.0455
 31
0.0
  0
LINE
  8
0
 10
-0.2101
 20
-1.9455
 30
0.0
 11
0.2101
 21
-1.9455
 31
0.0
  0
LINE
  8
0
 10
-0.2678
 20
-1.8455
 30
0.0
 11
0.2678
 21
-1.8455
 31
0.0
  0
LINE
  8
0
 10
-0.32555
 20
-1.7455
 30
0.0
 11
0.32555
 21
-1.7455
 31
0.0
  0
LINE
  8
0
 10
-0.3833
 20
-1.6455
 30
0.0
 11
0.3833
 21
-1.6455
 31
0.0
  0
LINE
  8
0
 10
-0.44105
 20
-1.5455
 30
0.0
 11
0.44105
 21
-1.5455
 31
0.0
  0
LINE
  8
0
 10
-0.49875
 20
-1.4455
 30
0.0
 11
0.49875
 21
-1.4455
 31
0.0
  0
LINE
  8
0
 10
-0.5565
 20
-1.3455
 30
0.0
 11
0.5565
 21
-1.3455
 31
0.0
  0
LINE
  8
0
 10
-0.61425
 20
-1.2455
 30
0.0
 11
0.61425
 21
-1.2455
 31
0.0
  0
LINE
  8
0
 10
-0.67195
 20
-1.1455
 30
0.0
 11
0.67195
 21
-1.1455
 31
0.0
  0
LINE
  8
0
 10
-0.7297
 20
-1.0455
 30
0.0
 11
0.7297
 21
-1.0455
 31
0.0
  0
LINE
  8
0
 10
-0.78745
 20
-0.9455
 30
0.0
 11
0.78745
 21
-0.9455
 31
0.0
  0
LINE
  8
0
 10
-0.84515
 20
-0.8455
 30
0.0
 11
0.84515
 21
-0.8455
 31
0.0
  0
LINE
  8
0
 10
-0.9029
 20
-0.7455
 30
0.0
 11
0.9029
 21
-0.7455
 31
0.0
  0
LINE
  8
0
 10
-0.96065
 20
-0.6455
 30
0.0
 11
0.96065
 21
-0.6455
 31
0.0
  0
LINE
  8
0
 10
0.0
 20
1.1547
 30
0.0
 11
-1.0
 21
-0.57735
 31
0.0
  0
LINE
  8
0
 10
1.0
 20
-0.57735
 30
0.0
 11
0.0
 21
1.1547
 31
0.0
  0
LINE
  8
0
 10
-1.0
 20
-0.57735
 30
0.0
 11
1.0
 21
-0.57735
 31
0.0
  0
LINE
  8
0
 10
0.0
 20
-2.3094
 30
0.0
 11
-1.0
 21
-0.57735
 31
0.0
  0
LINE
  8
0
 10
1.0
 20
-0.57735
 30
0.0
 11
0.0
 21
-2.3094
 31
0.0
  0
LINE
  8
0
 10
-1.0
 20
-0.57735
 30
0.0
 11
1.0
 21
-0.57735
 31
0.0
  0
ENDBLK
  8
0
  0
BLOCK
  8
0
  2
OPX
 70
    64
 10
0.0
 20
0.0
 30
0.0
  3
OPX
  0
LINE
  8
0
 10
0.00495
 20
1.15185
 30
0.0
 11
-0.99505
 21
-0.5802
 31
0.0
  0
LINE
  8
0
 10
1.00495
 20
-0.5802
 30
0.0
 11
0.00495
 21
1.15185
 31
0.0
  0
LINE
  8
0
 10
-0.99505
 20
-0.5802
 30
0.0
 11
1.00495
 21
-0.5802
 31
0.0
  0
CIRCLE
  8
0
 10
0.0
 20
0.0
 30
0.0
 40
0.045
  0
ENDBLK
  8
0
  0
BLOCK
  8
0
  2
OPZ
 70
    64
 10
0.0
 20
0.0
 30
0.0
  3
OPZ
  0
LINE
  8
0
 10
-0.0418
 20
-1.08795
 30
0.0
 11
0.03195
 21
-1.08795
 31
0.0
  0
LINE
  8
0
 10
-0.09955
 20
-0.98795
 30
0.0
 11
0.0897
 21
-0.98795
 31
0.0
  0
LINE
  8
0
 10
-0.1573
 20
-0.88795
 30
0.0
 11
0.14745
 21
-0.88795
 31
0.0
  0
LINE
  8
0
 10
-0.215
 20
-0.78795
 30
0.0
 11
0.20515
 21
-0.78795
 31
0.0
  0
LINE
  8
0
 10
-0.27275
 20
-0.68795
 30
0.0
 11
0.2629
 21
-0.68795
 31
0.0
  0
LINE
  8
0
 10
-0.3305
 20
-0.58795
 30
0.0
 11
0.32065
 21
-0.58795
 31
0.0
  0
LINE
  8
0
 10
-0.3882
 20
-0.48795
 30
0.0
 11
0.37835
 21
-0.48795
 31
0.0
  0
LINE
  8
0
 10
-0.44595
 20
-0.38795
 30
0.0
 11
0.4361
 21
-0.38795
 31
0.0
  0
LINE
  8
0
 10
-0.5037
 20
-0.28795
 30
0.0
 11
0.49385
 21
-0.28795
 31
0.0
  0
LINE
  8
0
 10
-0.5614
 20
-0.18795
 30
0.0
 11
0.55155
 21
-0.18795
 31
0.0
  0
LINE
  8
0
 10
-0.61915
 20
-0.08795
 30
0.0
 11
0.6093
 21
-0.08795
 31
0.0
  0
LINE
  8
0
 10
-0.6769
 20
0.01205
 30
0.0
 11
0.66705
 21
0.01205
 31
0.0
  0
LINE
  8
0
 10
-0.73465
 20
0.11205
 30
0.0
 11
0.7248
 21
0.11205
 31
0.0
  0
LINE
  8
0
 10
-0.79235
 20
0.21205
 30
0.0
 11
0.7825
 21
0.21205
 31
0.0
  0
LINE
  8
0
 10
-0.8501
 20
0.31205
 30
0.0
 11
0.84025
 21
0.31205
 31
0.0
  0
LINE
  8
0
 10
-0.90785
 20
0.41205
 30
0.0
 11
0.898
 21
0.41205
 31
0.0
  0
LINE
  8
0
 10
-0.96555
 20
0.51205
 30
0.0
 11
0.9557
 21
0.51205
 31
0.0
  0
CIRCLE
  8
0
 10
-0.00495
 20
0.00285
 30
0.0
 40
1.1547
  0
LINE
  8
0
 10
-0.00495
 20
-1.15185
 30
0.0
 11
-1.00495
 21
0.5802
 31
0.0
  0
LINE
  8
0
 10
0.99505
 20
0.5802
 30
0.0
 11
-0.00495
 21
-1.15185
 31
0.0
  0
LINE
  8
0
 10
-1.00495
 20
0.5802
 30
0.0
 11
0.99505
 21
0.5802
 31
0.0
  0
ENDBLK
  8
0
  0
BLOCK
  8
0
  2
OSJ
 70
    64
 10
0.0
 20
0.0
 30
0.0
  3
OSJ
  0
LINE
  8
0
 10
-0.0499
 20
-1.27725
 30
0.0
 11
0.0499
 21
-1.27725
 31
0.0
  0
LINE
  8
0
 10
-0.12645
 20
-1.12725
 30
0.0
 11
0.12645
 21
-1.12725
 31
0.0
  0
LINE
  8
0
 10
-0.20295
 20
-0.97725
 30
0.0
 11
0.20295
 21
-0.97725
 31
0.0
  0
LINE
  8
0
 10
-0.2795
 20
-0.82725
 30
0.0
 11
0.2795
 21
-0.82725
 31
0.0
  0
LINE
  8
0
 10
-0.35605
 20
-0.67725
 30
0.0
 11
0.35605
 21
-0.67725
 31
0.0
  0
LINE
  8
0
 10
0.3356
 20
-0.52725
 30
0.0
 11
0.4326
 21
-0.52725
 31
0.0
  0
LINE
  8
0
 10
-0.4326
 20
-0.52725
 30
0.0
 11
-0.3356
 21
-0.52725
 31
0.0
  0
LINE
  8
0
 10
0.4983
 20
-0.37725
 30
0.0
 11
0.50915
 21
-0.37725
 31
0.0
  0
LINE
  8
0
 10
-0.50915
 20
-0.37725
 30
0.0
 11
-0.4983
 21
-0.37725
 31
0.0
  0
LINE
  8
0
 10
-0.5567
 20
-0.2841
 30
0.0
 11
0.0
 21
-1.375
 31
0.0
  0
LINE
  8
0
 10
0.5567
 20
-0.2841
 30
0.0
 11
0.0
 21
-1.375
 31
0.0
  0
CIRCLE
  8
0
 10
0.0
 20
0.0
 30
0.0
 40
0.045
  0
CIRCLE
  8
0
 10
0.0
 20
0.0
 30
0.0
 40
0.625
  0
ENDBLK
  8
0
  0
BLOCK
  8
0
  2
OSM
 70
    64
 10
0.0
 20
0.0
 30
0.0
  3
OSM
  0
LINE
  8
0
 10
0.0
 20
0.375
 30
0.0
 11
0.0
 21
0.875
 31
0.0
  0
CIRCLE
  8
0
 10
0.0
 20
0.0
 30
0.0
 40
0.375
  0
ENDBLK
  8
0
  0
BLOCK
  8
0
  2
OSP
 70
    64
 10
0.0
 20
0.0
 30
0.0
  3
OSP
  0
CIRCLE
  8
0
 10
0.0
 20
0.0
 30
0.0
 40
0.045
  0
CIRCLE
  8
0
 10
0.0
 20
0.0
 30
0.0
 40
0.625
  0
ENDBLK
  8
0
  0
BLOCK
  8
0
  2
OSW
 70
    64
 10
0.0
 20
0.0
 30
0.0
  3
OSW
  0
LINE
  8
0
 10
-0.00795
 20
-0.5636
 30
0.0
 11
0.00795
 21
-0.5636
 31
0.0
  0
LINE
  8
0
 10
-0.09455
 20
-0.4136
 30
0.0
 11
0.09455
 21
-0.4136
 31
0.0
  0
LINE
  8
0
 10
-0.18115
 20
-0.2636
 30
0.0
 11
0.18115
 21
-0.2636
 31
0.0
  0
LINE
  8
0
 10
-0.26775
 20
-0.1136
 30
0.0
 11
0.26775
 21
-0.1136
 31
0.0
  0
LINE
  8
0
 10
-0.35435
 20
0.0364
 30
0.0
 11
0.35435
 21
0.0364
 31
0.0
  0
LINE
  8
0
 10
-0.44095
 20
0.1864
 30
0.0
 11
0.44095
 21
0.1864
 31
0.0
  0
LINE
  8
0
 10
0.0
 20
-0.57735
 30
0.0
 11
0.5
 21
0.2887
 31
0.0
  0
LINE
  8
0
 10
-0.5
 20
0.2887
 30
0.0
 11
0.0
 21
-0.57735
 31
0.0
  0
LINE
  8
0
 10
0.5
 20
0.2887
 30
0.0
 11
-0.5
 21
0.2887
 31
0.0
  0
ENDBLK
  8
0
  0
BLOCK
  8
0
  2
PJD
 70
    64
 10
0.0
 20
0.0
 30
0.0
  3
PJD
  0
LINE
  8
0
 10
0.0
 20
0.0
 30
0.0
 11
0.25
 21
0.0
 31
0.0
  0
LINE
  8
0
 10
0.0
 20
1.25
 30
0.0
 11
0.0
 21
0.0
 31
0.0
  0
LINE
  8
0
 10
0.0
 20
1.0
 30
0.0
 11
0.5
 21
0.75
 31
0.0
  0
LINE
  8
0
 10
-0.5
 20
0.75
 30
0.0
 11
0.0
 21
1.0
 31
0.0
  0
LINE
  8
0
 10
0.5
 20
1.5
 30
0.0
 11
-0.5
 21
1.0
 31
0.0
  0
LINE
  8
0
 10
-0.5
 20
1.5
 30
0.0
 11
0.5
 21
1.0
 31
0.0
  0
ENDBLK
  8
0
  0
BLOCK
  8
0
  2
PKI
 70
    64
 10
0.0
 20
0.0
 30
0.0
  3
PKI
  0
LINE
  8
0
 10
2.875
 20
0.0
 30
0.0
 11
2.1679
 21
-0.7071
 31
0.0
  0
LINE
  8
0
 10
3.75
 20
0.0
 30
0.0
 11
3.0429
 21
0.7071
 31
0.0
  0
LINE
  8
0
 10
0.75
 20
0.0
 30
0.0
 11
5.75
 21
0.0
 31
0.0
  0
ENDBLK
  8
0
  0
BLOCK
  8
0
  2
PLS
 70
    64
 10
0.0
 20
0.0
 30
0.0
  3
PLS
  0
CIRCLE
  8
0
 10
2.5
 20
0.646
 30
0.0
 40
1.0
  0
CIRCLE
  8
0
 10
0.0
 20
0.646
 30
0.0
 40
1.0
  0
CIRCLE
  8
0
 10
-2.5
 20
0.646
 30
0.0
 40
1.0
  0
CIRCLE
  8
0
 10
1.25
 20
-0.354
 30
0.0
 40
1.0
  0
CIRCLE
  8
0
 10
-1.25
 20
-0.354
 30
0.0
 40
1.0
  0
ENDBLK
  8
0
  0
BLOCK
  8
0
  2
PLT
 70
    64
 10
0.0
 20
0.0
 30
0.0
  3
PLT
  0
LINE
  8
0
 10
2.875
 20
0.0
 30
0.0
 11
2.1679
 21
-0.7071
 31
0.0
  0
LINE
  8
0
 10
3.75
 20
0.0
 30
0.0
 11
3.0429
 21
0.7071
 31
0.0
  0
LINE
  8
0
 10
0.75
 20
0.0
 30
0.0
 11
5.75
 21
0.0
 31
0.0
  0
ENDBLK
  8
0
  0
BLOCK
  8
0
  2
PLZ
 70
    64
 10
0.0
 20
0.0
 30
0.0
  3
PLZ
  0
CIRCLE
  8
0
 10
1.25
 20
0.4385
 30
0.0
 40
1.0
  0
CIRCLE
  8
0
 10
-1.25
 20
0.4385
 30
0.0
 40
1.0
  0
CIRCLE
  8
0
 10
0.0
 20
-0.5615
 30
0.0
 40
1.0
  0
ENDBLK
  8
0
  0
BLOCK
  8
0
  2
PNN
 70
    64
 10
0.0
 20
0.0
 30
0.0
  3
PNN
  0
LINE
  8
0
 10
3.25
 20
0.0
 30
0.0
 11
2.5429
 21
-0.7071
 31
0.0
  0
LINE
  8
0
 10
3.25
 20
0.0
 30
0.0
 11
2.5429
 21
0.7071
 31
0.0
  0
LINE
  8
0
 10
0.75
 20
0.0
 30
0.0
 11
5.75
 21
0.0
 31
0.0
  0
ENDBLK
  8
0
  0
BLOCK
  8
0
  2
POL
 70
    64
 10
0.0
 20
0.0
 30
0.0
  3
POL
  0
LINE
  8
0
 10
0.0
 20
0.25
 30
0.0
 11
0.0
 21
0.5
 31
0.0
  0
CIRCLE
  8
0
 10
0.0
 20
0.0245
 30
0.0
 40
0.25
  0
ENDBLK
  8
0
  0
BLOCK
  8
0
  2
POM
 70
    64
 10
0.0
 20
0.0
 30
0.0
  3
POM
  0
LINE
  8
0
 10
-0.25
 20
1.25
 30
0.0
 11
0.25
 21
1.25
 31
0.0
  0
LINE
  8
0
 10
-0.33335
 20
1.125
 30
0.0
 11
0.33335
 21
1.125
 31
0.0
  0
LINE
  8
0
 10
-0.375
 20
1.0
 30
0.0
 11
0.375
 21
1.0
 31
0.0
  0
LINE
  8
0
 10
0.375
 20
0.875
 30
0.0
 11
-0.375
 21
0.875
 31
0.0
  0
LINE
  8
0
 10
-0.375
 20
0.75
 30
0.0
 11
0.375
 21
0.75
 31
0.0
  0
LINE
  8
0
 10
0.375
 20
0.625
 30
0.0
 11
-0.375
 21
0.625
 31
0.0
  0
LINE
  8
0
 10
-0.375
 20
0.5
 30
0.0
 11
0.375
 21
0.5
 31
0.0
  0
LINE
  8
0
 10
-0.375
 20
0.375
 30
0.0
 11
0.375
 21
0.375
 31
0.0
  0
LINE
  8
0
 10
-0.375
 20
0.25
 30
0.0
 11
0.375
 21
0.25
 31
0.0
  0
LINE
  8
0
 10
-0.375
 20
0.125
 30
0.0
 11
0.375
 21
0.125
 31
0.0
  0
LINE
  8
0
 10
0.375
 20
0.0
 30
0.0
 11
0.75
 21
0.0
 31
0.0
  0
LINE
  8
0
 10
0.375
 20
0.0
 30
0.0
 11
-0.375
 21
0.0
 31
0.0
  0
LINE
  8
0
 10
0.375
 20
1.0
 30
0.0
 11
0.375
 21
0.0
 31
0.0
  0
LINE
  8
0
 10
0.3125
 20
1.1875
 30
0.0
 11
0.375
 21
1.0
 31
0.0
  0
LINE
  8
0
 10
0.1875
 20
1.3125
 30
0.0
 11
0.3125
 21
1.1875
 31
0.0
  0
LINE
  8
0
 10
0.0625
 20
1.375
 30
0.0
 11
0.1875
 21
1.3125
 31
0.0
  0
LINE
  8
0
 10
-0.0625
 20
1.375
 30
0.0
 11
0.0625
 21
1.375
 31
0.0
  0
LINE
  8
0
 10
-0.1875
 20
1.3125
 30
0.0
 11
-0.0625
 21
1.375
 31
0.0
  0
LINE
  8
0
 10
-0.3125
 20
1.1875
 30
0.0
 11
-0.1875
 21
1.3125
 31
0.0
  0
LINE
  8
0
 10
-0.375
 20
1.0
 30
0.0
 11
-0.3125
 21
1.1875
 31
0.0
  0
LINE
  8
0
 10
-0.375
 20
0.0
 30
0.0
 11
-0.375
 21
1.0
 31
0.0
  0
LINE
  8
0
 10
-0.75
 20
0.0
 30
0.0
 11
-0.375
 21
0.0
 31
0.0
  0
ENDBLK
  8
0
  0
BLOCK
  8
0
  2
PRH
 70
    64
 10
0.0
 20
0.0
 30
0.0
  3
PRH
  0
LINE
  8
0
 10
-0.375
 20
-0.5
 30
0.0
 11
0.375
 21
-0.5
 31
0.0
  0
LINE
  8
0
 10
0.375
 20
0.5
 30
0.0
 11
-0.375
 21
-0.5
 31
0.0
  0
LINE
  8
0
 10
-0.375
 20
0.5
 30
0.0
 11
0.375
 21
0.5
 31
0.0
  0
ENDBLK
  8
0
  0
BLOCK
  8
0
  2
PRM
 70
    64
 10
0.0
 20
0.0
 30
0.0
  3
PRM
  0
LINE
  8
0
 10
-0.75
 20
0.5
 30
0.0
 11
-0.75
 21
-0.5
 31
0.0
  0
LINE
  8
0
 10
0.75
 20
0.5
 30
0.0
 11
-0.75
 21
0.5
 31
0.0
  0
LINE
  8
0
 10
0.75
 20
-0.5
 30
0.0
 11
0.75
 21
0.5
 31
0.0
  0
LINE
  8
0
 10
-0.75
 20
-0.5
 30
0.0
 11
0.75
 21
-0.5
 31
0.0
  0
ENDBLK
  8
0
  0
BLOCK
  8
0
  2
PRZ
 70
    64
 10
0.0
 20
0.0
 30
0.0
  3
PRZ
  0
LINE
  8
0
 10
0.0
 20
0.0
 30
0.0
 11
0.25
 21
0.0
 31
0.0
  0
LINE
  8
0
 10
0.0
 20
0.5
 30
0.0
 11
0.0
 21
0.0
 31
0.0
  0
LINE
  8
0
 10
-0.25
 20
0.5
 30
0.0
 11
-0.25
 21
1.5
 31
0.0
  0
LINE
  8
0
 10
0.25
 20
0.5
 30
0.0
 11
-0.25
 21
0.5
 31
0.0
  0
LINE
  8
0
 10
0.25
 20
1.5
 30
0.0
 11
0.25
 21
0.5
 31
0.0
  0
LINE
  8
0
 10
-0.25
 20
1.5
 30
0.0
 11
0.25
 21
1.5
 31
0.0
  0
ENDBLK
  8
0
  0
BLOCK
  8
0
  2
PSA
 70
    64
 10
0.0
 20
0.0
 30
0.0
  3
PSA
  0
LINE
  8
0
 10
2.875
 20
0.0
 30
0.0
 11
2.1679
 21
-0.7071
 31
0.0
  0
LINE
  8
0
 10
3.75
 20
0.0
 30
0.0
 11
3.0429
 21
0.7071
 31
0.0
  0
LINE
  8
0
 10
0.75
 20
0.0
 30
0.0
 11
5.75
 21
0.0
 31
0.0
  0
ENDBLK
  8
0
  0
BLOCK
  8
0
  2
PSN
 70
    64
 10
0.0
 20
0.0
 30
0.0
  3
PSN
  0
LINE
  8
0
 10
4.25
 20
0.0
 30
0.0
 11
3.5429
 21
-0.7071
 31
0.0
  0
LINE
  8
0
 10
4.25
 20
0.0
 30
0.0
 11
3.5429
 21
0.7071
 31
0.0
  0
LINE
  8
0
 10
2.25
 20
0.25
 30
0.0
 11
2.25
 21
-0.25
 31
0.0
  0
LINE
  8
0
 10
0.75
 20
0.0
 30
0.0
 11
5.75
 21
0.0
 31
0.0
  0
ENDBLK
  8
0
  0
BLOCK
  8
0
  2
PTR
 70
    64
 10
0.0
 20
0.0
 30
0.0
  3
PTR
  0
LINE
  8
0
 10
0.25
 20
2.5
 30
0.0
 11
0.1618
 21
2.0441
 31
0.0
  0
LINE
  8
0
 10
0.25
 20
2.5
 30
0.0
 11
-0.0618
 21
2.1559
 31
0.0
  0
LINE
  8
0
 10
-0.25
 20
1.5
 30
0.0
 11
0.0988
 21
2.19765
 31
0.0
  0
LINE
  8
0
 10
0.25
 20
1.75
 30
0.0
 11
-0.25
 21
1.5
 31
0.0
  0
LINE
  8
0
 10
-0.25
 20
0.75
 30
0.0
 11
0.25
 21
1.75
 31
0.0
  0
ENDBLK
  8
0
  0
BLOCK
  8
0
  2
PTV
 70
    64
 10
0.0
 20
0.0
 30
0.0
  3
PTV
  0
LINE
  8
0
 10
2.875
 20
0.0
 30
0.0
 11
2.1679
 21
-0.7071
 31
0.0
  0
LINE
  8
0
 10
3.75
 20
0.0
 30
0.0
 11
3.0429
 21
0.7071
 31
0.0
  0
LINE
  8
0
 10
0.75
 20
0.0
 30
0.0
 11
5.75
 21
0.0
 31
0.0
  0
ENDBLK
  8
0
  0
BLOCK
  8
0
  2
PWM
 70
    64
 10
0.0
 20
0.0
 30
0.0
  3
PWM
  0
LINE
  8
0
 10
-1.5
 20
0.75
 30
0.0
 11
-0.4472
 21
0.2236
 31
0.0
  0
LINE
  8
0
 10
-1.5
 20
-0.75
 30
0.0
 11
-1.5
 21
0.75
 31
0.0
  0
LINE
  8
0
 10
-0.4472
 20
-0.2236
 30
0.0
 11
-1.5
 21
-0.75
 31
0.0
  0
LINE
  8
0
 10
1.5
 20
0.75
 30
0.0
 11
0.4472
 21
0.2236
 31
0.0
  0
LINE
  8
0
 10
1.5
 20
-0.75
 30
0.0
 11
1.5
 21
0.75
 31
0.0
  0
LINE
  8
0
 10
0.4472
 20
-0.2236
 30
0.0
 11
1.5
 21
-0.75
 31
0.0
  0
LINE
  8
0
 10
0.75
 20
-1.5
 30
0.0
 11
0.2236
 21
-0.4472
 31
0.0
  0
LINE
  8
0
 10
-0.75
 20
-1.5
 30
0.0
 11
0.75
 21
-1.5
 31
0.0
  0
LINE
  8
0
 10
-0.2236
 20
-0.4472
 30
0.0
 11
-0.75
 21
-1.5
 31
0.0
  0
LINE
  8
0
 10
0.75
 20
1.5
 30
0.0
 11
0.2236
 21
0.4472
 31
0.0
  0
LINE
  8
0
 10
-0.75
 20
1.5
 30
0.0
 11
0.75
 21
1.5
 31
0.0
  0
LINE
  8
0
 10
-0.2236
 20
0.4472
 30
0.0
 11
-0.75
 21
1.5
 31
0.0
  0
CIRCLE
  8
0
 10
0.0
 20
0.0
 30
0.0
 40
0.25
  0
ENDBLK
  8
0
  0
BLOCK
  8
0
  2
PWN
 70
    64
 10
0.0
 20
0.0
 30
0.0
  3
PWN
  0
LINE
  8
0
 10
2.9571
 20
0.0
 30
0.0
 11
2.25
 21
-0.7071
 31
0.0
  0
LINE
  8
0
 10
2.9571
 20
0.0
 30
0.0
 11
2.25
 21
0.7071
 31
0.0
  0
LINE
  8
0
 10
4.25
 20
0.0
 30
0.0
 11
3.5429
 21
-0.7071
 31
0.0
  0
LINE
  8
0
 10
4.25
 20
0.0
 30
0.0
 11
3.5429
 21
0.7071
 31
0.0
  0
LINE
  8
0
 10
0.75
 20
0.0
 30
0.0
 11
5.75
 21
0.0
 31
0.0
  0
ENDBLK
  8
0
  0
BLOCK
  8
0
  2
SKR
 70
    64
 10
0.0
 20
0.0
 30
0.0
  3
SKR
  0
LINE
  8
0
 10
0.0
 20
0.75
 30
0.0
 11
0.0
 21
-0.25
 31
0.0
  0
CIRCLE
  8
0
 10
0.0
 20
0.0
 30
0.0
 40
0.25
  0
ENDBLK
  8
0
  0
BLOCK
  8
0
  2
SLH
 70
    64
 10
0.0
 20
0.0
 30
0.0
  3
SLH
  0
CIRCLE
  8
0
 10
0.0
 20
0.0
 30
0.0
 40
0.75
  0
CIRCLE
  8
0
 10
0.0
 20
0.0
 30
0.0
 40
0.375
  0
ENDBLK
  8
0
  0
BLOCK
  8
0
  2
SLK
 70
    64
 10
0.0
 20
0.0
 30
0.0
  3
SLK
  0
LINE
  8
0
 10
-0.1831
 20
-0.32725
 30
0.0
 11
0.1831
 21
-0.32725
 31
0.0
  0
LINE
  8
0
 10
-0.33045
 20
-0.17725
 30
0.0
 11
0.33045
 21
-0.17725
 31
0.0
  0
LINE
  8
0
 10
-0.374
 20
-0.02725
 30
0.0
 11
0.374
 21
-0.02725
 31
0.0
  0
LINE
  8
0
 10
-0.35435
 20
0.12275
 30
0.0
 11
0.35435
 21
0.12275
 31
0.0
  0
LINE
  8
0
 10
-0.25735
 20
0.27275
 30
0.0
 11
0.25735
 21
0.27275
 31
0.0
  0
CIRCLE
  8
0
 10
0.0
 20
0.0
 30
0.0
 40
0.75
  0
CIRCLE
  8
0
 10
0.0
 20
0.0
 30
0.0
 40
0.375
  0
ENDBLK
  8
0
  0
BLOCK
  8
0
  2
SLU
 70
    64
 10
0.0
 20
0.0
 30
0.0
  3
SLU
  0
CIRCLE
  8
0
 10
0.0
 20
0.0
 30
0.0
 40
0.25
  0
ENDBLK
  8
0
  0
BLOCK
  8
0
  2
STD
 70
    64
 10
0.0
 20
0.0
 30
0.0
  3
STD
  0
CIRCLE
  8
0
 10
0.0
 20
0.0
 30
0.0
 40
0.75
  0
CIRCLE
  8
0
 10
0.0
 20
0.0
 30
0.0
 40
0.25
  0
ENDBLK
  8
0
  0
BLOCK
  8
0
  2
STE
 70
    64
 10
0.0
 20
0.0
 30
0.0
  3
STE
  0
LINE
  8
0
 10
1.0
 20
0.5
 30
0.0
 11
1.0
 21
-0.5
 31
0.0
  0
LINE
  8
0
 10
-1.0
 20
0.0
 30
0.0
 11
1.0
 21
0.0
 31
0.0
  0
LINE
  8
0
 10
-1.0
 20
0.5
 30
0.0
 11
-1.0
 21
-0.5
 31
0.0
  0
ENDBLK
  8
0
  0
BLOCK
  8
0
  2
STG
 70
    64
 10
0.0
 20
0.0
 30
0.0
  3
STG
  0
ARC
  8
0
 10
0.25
 20
1.25
 30
0.0
 40
0.25
 50
0.0
 51
180.0
  0
ARC
  8
0
 10
-0.25
 20
1.25
 30
0.0
 40
0.25
 50
0.0
 51
180.0
  0
LINE
  8
0
 10
0.0
 20
0.75
 30
0.0
 11
0.0
 21
1.25
 31
0.0
  0
CIRCLE
  8
0
 10
0.0
 20
0.0
 30
0.0
 40
0.75
  0
CIRCLE
  8
0
 10
0.0
 20
0.0
 30
0.0
 40
0.25
  0
ENDBLK
  8
0
  0
BLOCK
  8
0
  2
SWJ
 70
    64
 10
0.0
 20
0.0
 30
0.0
  3
SWJ
  0
LINE
  8
0
 10
1.585
 20
-0.25
 30
0.0
 11
2.5
 21
0.0
 31
0.0
  0
LINE
  8
0
 10
1.585
 20
0.25
 30
0.0
 11
2.5
 21
0.0
 31
0.0
  0
LINE
  8
0
 10
0.0
 20
0.0
 30
0.0
 11
1.585
 21
0.0
 31
0.0
  0
ENDBLK
  8
0
  0
BLOCK
  8
0
  2
WJD
 70
    64
 10
0.0
 20
0.0
 30
0.0
  3
WJD
  0
LINE
  8
0
 10
1.585
 20
-0.25
 30
0.0
 11
2.5
 21
0.0
 31
0.0
  0
LINE
  8
0
 10
1.585
 20
0.25
 30
0.0
 11
2.5
 21
0.0
 31
0.0
  0
LINE
  8
0
 10
0.0
 20
0.0
 30
0.0
 11
1.585
 21
0.0
 31
0.0
  0
ENDBLK
  8
0
  0
BLOCK
  8
0
  2
SZB
 70
    64
 10
0.0
 20
0.0
 30
0.0
  3
SZB
  0
CIRCLE
  8
0
 10
0.0
 20
0.0
 30
0.0
 40
0.25
  0
LINE
  8
0
 10
-0.5
 20
0.0
 30
0.0
 11
0.5
 21
0.0
 31
0.0
  0
ENDBLK
  8
0
  0
BLOCK
  8
0
  2
SZL
 70
    64
 10
0.0
 20
0.0
 30
0.0
  3
SZL
  0
LINE
  8
0
 10
-0.25
 20
-0.25
 30
0.0
 11
0.25
 21
-0.25
 31
0.0
  0
LINE
  8
0
 10
-0.25
 20
0.25
 30
0.0
 11
0.25
 21
0.25
 31
0.0
  0
LINE
  8
0
 10
0.25
 20
0.0
 30
0.0
 11
2.75
 21
0.0
 31
0.0
  0
ENDBLK
  8
0
  0
BLOCK
  8
0
  2
TBL
 70
    64
 10
0.0
 20
0.0
 30
0.0
  3
TBL
  0
LINE
  8
0
 10
0.0
 20
0.0
 30
0.0
 11
0.25
 21
0.0
 31
0.0
  0
LINE
  8
0
 10
0.0
 20
0.5
 30
0.0
 11
0.0
 21
0.0
 31
0.0
  0
LINE
  8
0
 10
-0.5
 20
1.0
 30
0.0
 11
-0.5
 21
0.5
 31
0.0
  0
LINE
  8
0
 10
0.5
 20
1.0
 30
0.0
 11
-0.5
 21
1.0
 31
0.0
  0
LINE
  8
0
 10
0.5
 20
0.5
 30
0.0
 11
0.5
 21
1.0
 31
0.0
  0
LINE
  8
0
 10
-0.5
 20
0.5
 30
0.0
 11
0.5
 21
0.5
 31
0.0
  0
ENDBLK
  8
0
  0
BLOCK
  8
0
  2
TRA
 70
    64
 10
0.0
 20
0.0
 30
0.0
  3
TRA
  0
LINE
  8
0
 10
0.25
 20
-1.12305
 30
0.0
 11
0.25
 21
-1.62305
 31
0.0
  0
LINE
  8
0
 10
-0.25
 20
-1.12305
 30
0.0
 11
-0.25
 21
-1.62305
 31
0.0
  0
LINE
  8
0
 10
2.75
 20
1.37695
 30
0.0
 11
2.75
 21
0.87695
 31
0.0
  0
LINE
  8
0
 10
2.25
 20
1.37695
 30
0.0
 11
2.25
 21
0.87695
 31
0.0
  0
LINE
  8
0
 10
-2.25
 20
1.37695
 30
0.0
 11
-2.25
 21
0.87695
 31
0.0
  0
LINE
  8
0
 10
-2.75
 20
1.37695
 30
0.0
 11
-2.75
 21
0.87695
 31
0.0
  0
ENDBLK
  8
0
  0
BLOCK
  8
0
  2
TRG
 70
    64
 10
0.0
 20
0.0
 30
0.0
  3
TRG
  0
LINE
  8
0
 10
-0.5
 20
-1.0
 30
0.0
 11
0.5
 21
-1.0
 31
0.0
  0
LINE
  8
0
 10
0.0
 20
0.0
 30
0.0
 11
0.0
 21
-1.0
 31
0.0
  0
ENDBLK
  8
0
  0
BLOCK
  8
0
  2
TRW
 70
    64
 10
0.0
 20
0.0
 30
0.0
  3
TRW
  0
LINE
  8
0
 10
-0.5
 20
-1.0
 30
0.0
 11
0.5
 21
-1.0
 31
0.0
  0
LINE
  8
0
 10
0.0
 20
0.0
 30
0.0
 11
0.0
 21
-1.0
 31
0.0
  0
ENDBLK
  8
0
  0
BLOCK
  8
0
  2
TRZ
 70
    64
 10
0.0
 20
0.0
 30
0.0
  3
TRZ
  0
LINE
  8
0
 10
0.5
 20
0.875
 30
0.0
 11
0.625
 21
1.0
 31
0.0
  0
LINE
  8
0
 10
0.3125
 20
0.5625
 30
0.0
 11
0.5
 21
0.875
 31
0.0
  0
LINE
  8
0
 10
0.25
 20
0.1875
 30
0.0
 11
0.3125
 21
0.5625
 31
0.0
  0
LINE
  8
0
 10
0.25
 20
0.0
 30
0.0
 11
0.25
 21
0.1875
 31
0.0
  0
LINE
  8
0
 10
-0.5
 20
0.875
 30
0.0
 11
-0.625
 21
1.0
 31
0.0
  0
LINE
  8
0
 10
-0.3125
 20
0.5625
 30
0.0
 11
-0.5
 21
0.875
 31
0.0
  0
LINE
  8
0
 10
-0.25
 20
0.1875
 30
0.0
 11
-0.3125
 21
0.5625
 31
0.0
  0
LINE
  8
0
 10
-0.25
 20
0.0
 30
0.0
 11
-0.25
 21
0.1875
 31
0.0
  0
LINE
  8
0
 10
0.0
 20
0.0
 30
0.0
 11
0.0
 21
1.0
 31
0.0
  0
ENDBLK
  8
0
  0
BLOCK
  8
0
  2
UGB
 70
    64
 10
0.0
 20
0.0
 30
0.0
  3
UGB
  0
CIRCLE
  8
0
 10
0.0
 20
0.0
 30
0.0
 40
0.0625
  0
ENDBLK
  8
0
  0
BLOCK
  8
0
  2
UGC
 70
    64
 10
0.0
 20
0.0
 30
0.0
  3
UGC
  0
CIRCLE
  8
0
 10
0.0
 20
0.0
 30
0.0
 40
0.0625
  0
ENDBLK
  8
0
  0
BLOCK
  8
0
  2
UGE
 70
    64
 10
0.0
 20
0.0
 30
0.0
  3
UGE
  0
CIRCLE
  8
0
 10
0.0
 20
0.0
 30
0.0
 40
0.0625
  0
ENDBLK
  8
0
  0
BLOCK
  8
0
  2
UGG
 70
    64
 10
0.0
 20
0.0
 30
0.0
  3
UGG
  0
CIRCLE
  8
0
 10
0.0
 20
0.0
 30
0.0
 40
0.0625
  0
ENDBLK
  8
0
  0
BLOCK
  8
0
  2
UGI
 70
    64
 10
0.0
 20
0.0
 30
0.0
  3
UGI
  0
CIRCLE
  8
0
 10
0.0
 20
0.0
 30
0.0
 40
0.0625
  0
ENDBLK
  8
0
  0
BLOCK
  8
0
  2
UGK
 70
    64
 10
0.0
 20
0.0
 30
0.0
  3
UGK
  0
CIRCLE
  8
0
 10
0.0
 20
0.0
 30
0.0
 40
0.0625
  0
ENDBLK
  8
0
  0
BLOCK
  8
0
  2
UGM
 70
    64
 10
0.0
 20
0.0
 30
0.0
  3
UGM
  0
CIRCLE
  8
0
 10
0.0
 20
0.0
 30
0.0
 40
0.0625
  0
ENDBLK
  8
0
  0
BLOCK
  8
0
  2
UGN
 70
    64
 10
0.0
 20
0.0
 30
0.0
  3
UGN
  0
CIRCLE
  8
0
 10
0.0
 20
0.0
 30
0.0
 40
0.0625
  0
ENDBLK
  8
0
  0
BLOCK
  8
0
  2
UGP
 70
    64
 10
0.0
 20
0.0
 30
0.0
  3
UGP
  0
CIRCLE
  8
0
 10
0.0
 20
0.0
 30
0.0
 40
0.0625
  0
ENDBLK
  8
0
  0
BLOCK
  8
0
  2
UGT
 70
    64
 10
0.0
 20
0.0
 30
0.0
  3
UGT
  0
CIRCLE
  8
0
 10
0.0
 20
0.0
 30
0.0
 40
0.0625
  0
ENDBLK
  8
0
  0
BLOCK
  8
0
  2
UGW
 70
    64
 10
0.0
 20
0.0
 30
0.0
  3
UGW
  0
CIRCLE
  8
0
 10
0.0
 20
0.0
 30
0.0
 40
0.0625
  0
ENDBLK
  8
0
  0
BLOCK
  8
0
  2
UGX
 70
    64
 10
0.0
 20
0.0
 30
0.0
  3
UGX
  0
CIRCLE
  8
0
 10
0.0
 20
0.0
 30
0.0
 40
0.0625
  0
ENDBLK
  8
0
  0
BLOCK
  8
0
  2
WCI
 70
    64
 10
0.0
 20
0.0
 30
0.0
  3
WCI
  0
LINE
  8
0
 10
-0.5
 20
-1.0
 30
0.0
 11
0.5
 21
-1.0
 31
0.0
  0
LINE
  8
0
 10
0.0
 20
0.0
 30
0.0
 11
0.0
 21
-1.0
 31
0.0
  0
ENDBLK
  8
0
  0
BLOCK
  8
0
  2
WCN
 70
    64
 10
0.0
 20
0.0
 30
0.0
  3
WCN
  0
LINE
  8
0
 10
0.2465
 20
0.04165
 30
0.0
 11
0.0
 21
1.5
 31
0.0
  0
LINE
  8
0
 10
-0.2465
 20
0.04165
 30
0.0
 11
0.0
 21
1.5
 31
0.0
  0
CIRCLE
  8
0
 10
0.0
 20
0.0
 30
0.0
 40
0.25
  0
ENDBLK
  8
0
  0
BLOCK
  8
0
  2
WLD
 70
    64
 10
0.0
 20
0.0
 30
0.0
  3
WLD
  0
CIRCLE
  8
0
 10
0.0
 20
0.0
 30
0.0
 40
0.045
  0
LINE
  8
0
 10
-0.375
 20
0.25
 30
0.0
 11
-0.375
 21
-0.25
 31
0.0
  0
LINE
  8
0
 10
0.375
 20
0.25
 30
0.0
 11
-0.375
 21
0.25
 31
0.0
  0
LINE
  8
0
 10
0.375
 20
-0.25
 30
0.0
 11
0.375
 21
0.25
 31
0.0
  0
LINE
  8
0
 10
-0.375
 20
-0.25
 30
0.0
 11
0.375
 21
-0.25
 31
0.0
  0
ENDBLK
  8
0
  0
BLOCK
  8
0
  2
WLM
 70
    64
 10
0.0
 20
0.0
 30
0.0
  3
WLM
  0
CIRCLE
  8
0
 10
0.0
 20
0.0
 30
0.0
 40
0.045
  0
LINE
  8
0
 10
-0.25
 20
0.25
 30
0.0
 11
-0.25
 21
-0.25
 31
0.0
  0
LINE
  8
0
 10
0.25
 20
0.25
 30
0.0
 11
-0.25
 21
0.25
 31
0.0
  0
LINE
  8
0
 10
0.25
 20
-0.25
 30
0.0
 11
0.25
 21
0.25
 31
0.0
  0
LINE
  8
0
 10
-0.25
 20
-0.25
 30
0.0
 11
0.25
 21
-0.25
 31
0.0
  0
ENDBLK
  8
0
  0
BLOCK
  8
0
  2
WLZ
 70
    64
 10
0.0
 20
0.0
 30
0.0
  3
WLZ
  0
CIRCLE
  8
0
 10
0.0
 20
0.0
 30
0.0
 40
0.045
  0
CIRCLE
  8
0
 10
0.0
 20
0.0
 30
0.0
 40
0.25
  0
ENDBLK
  8
0
  0
BLOCK
  8
0
  2
KOMORA
 70
    64
 10
0.0
 20
0.0
 30
0.0
  3
KOMORA
  0
CIRCLE
  8
0
 10
0.0
 20
0.0
 30
0.0
 40
0.0625
  0
CIRCLE
  8
0
 10
0.0
 20
0.0
 30
0.0
 40
0.375
  0
ENDBLK
  8
0
  0
BLOCK
  8
0
  2
WSP
 70
    64
 10
0.0
 20
0.0
 30
0.0
  3
WSP
  0
CIRCLE
  8
0
 10
0.0
 20
0.0
 30
0.0
 40
0.09
  0
ENDBLK
  8
0
  0
BLOCK
  8
0
  2
WSU
 70
    64
 10
0.0
 20
0.0
 30
0.0
  3
WSU
  0
CIRCLE
  8
0
 10
0.0
 20
0.0
 30
0.0
 40
0.09
  0
ENDBLK
  8
0
  0
BLOCK
  8
0
  2
WTN
 70
    64
 10
0.0
 20
0.0
 30
0.0
  3
WTN
  0
LINE
  8
0
 10
-0.25
 20
0.75
 30
0.0
 11
0.25
 21
1.25
 31
0.0
  0
LINE
  8
0
 10
-0.25
 20
1.25
 30
0.0
 11
0.25
 21
0.75
 31
0.0
  0
LINE
  8
0
 10
0.0
 20
1.0
 30
0.0
 11
0.0
 21
0.25
 31
0.0
  0
LINE
  8
0
 10
-0.25
 20
0.25
 30
0.0
 11
-0.25
 21
-0.25
 31
0.0
  0
LINE
  8
0
 10
0.25
 20
0.25
 30
0.0
 11
-0.25
 21
0.25
 31
0.0
  0
LINE
  8
0
 10
0.25
 20
-0.25
 30
0.0
 11
0.25
 21
0.25
 31
0.0
  0
LINE
  8
0
 10
-0.25
 20
-0.25
 30
0.0
 11
0.25
 21
-0.25
 31
0.0
  0
ENDBLK
  8
0
  0
BLOCK
  8
0
  2
WTR
 70
    64
 10
0.0
 20
0.0
 30
0.0
  3
WTR
  0
LINE
  8
0
 10
-0.25
 20
0.75
 30
0.0
 11
0.25
 21
1.25
 31
0.0
  0
LINE
  8
0
 10
-0.25
 20
1.25
 30
0.0
 11
0.25
 21
0.75
 31
0.0
  0
LINE
  8
0
 10
0.0
 20
0.25
 30
0.0
 11
0.0
 21
1.0
 31
0.0
  0
LINE
  8
0
 10
-0.25
 20
-0.125
 30
0.0
 11
0.25
 21
-0.125
 31
0.0
  0
LINE
  8
0
 10
-0.25
 20
0.0
 30
0.0
 11
0.25
 21
0.0
 31
0.0
  0
LINE
  8
0
 10
-0.25
 20
0.125
 30
0.0
 11
0.25
 21
0.125
 31
0.0
  0
LINE
  8
0
 10
-0.25
 20
-0.25
 30
0.0
 11
-0.25
 21
0.25
 31
0.0
  0
LINE
  8
0
 10
0.25
 20
-0.25
 30
0.0
 11
-0.25
 21
-0.25
 31
0.0
  0
LINE
  8
0
 10
0.25
 20
0.25
 30
0.0
 11
0.25
 21
-0.25
 31
0.0
  0
LINE
  8
0
 10
-0.25
 20
0.25
 30
0.0
 11
0.25
 21
0.25
 31
0.0
  0
ENDBLK
  8
0
  0
BLOCK
  8
0
  2
WYD
 70
    64
 10
0.0
 20
0.0
 30
0.0
  3
WYD
  0
CIRCLE
  8
0
 10
-0.024
 20
0.56695
 30
0.0
 40
0.025
  0
CIRCLE
  8
0
 10
0.63265
 20
0.12415
 30
0.0
 40
0.025
  0
CIRCLE
  8
0
 10
-0.2682
 20
-0.1278
 30
0.0
 40
0.025
  0
CIRCLE
  8
0
 10
0.1363
 20
-0.5553
 30
0.0
 40
0.025
  0
CIRCLE
  8
0
 10
-0.39815
 20
-0.52475
 30
0.0
 40
0.025
  0
CIRCLE
  8
0
 10
0.21265
 20
0.4447
 30
0.0
 40
0.025
  0
CIRCLE
  8
0
 10
0.6402
 20
0.42945
 30
0.0
 40
0.025
  0
CIRCLE
  8
0
 10
-0.1934
 20
-0.50055
 30
0.0
 40
0.025
  0
CIRCLE
  8
0
 10
0.35625
 20
-0.30205
 30
0.0
 40
0.025
  0
CIRCLE
  8
0
 10
0.4376
 20
-0.4598
 30
0.0
 40
0.025
  0
CIRCLE
  8
0
 10
0.18315
 20
-0.4191
 30
0.0
 40
0.025
  0
CIRCLE
  8
0
 10
-0.13245
 20
-0.33775
 30
0.0
 40
0.025
  0
CIRCLE
  8
0
 10
-0.3004
 20
-0.3785
 30
0.0
 40
0.025
  0
CIRCLE
  8
0
 10
-0.0204
 20
-0.4802
 30
0.0
 40
0.025
  0
CIRCLE
  8
0
 10
0.07625
 20
-0.2511
 30
0.0
 40
0.025
  0
CIRCLE
  8
0
 10
-0.1171
 20
-0.1748
 30
0.0
 40
0.025
  0
CIRCLE
  8
0
 10
-0.57525
 20
0.37485
 30
0.0
 40
0.025
  0
CIRCLE
  8
0
 10
-0.6362
 20
0.23745
 30
0.0
 40
0.025
  0
CIRCLE
  8
0
 10
-0.65155
 20
0.0643
 30
0.0
 40
0.025
  0
CIRCLE
  8
0
 10
-0.34615
 20
-0.22575
 30
0.0
 40
0.025
  0
CIRCLE
  8
0
 10
-0.54465
 20
-0.4039
 30
0.0
 40
0.025
  0
CIRCLE
  8
0
 10
-0.64635
 20
-0.2309
 30
0.0
 40
0.025
  0
CIRCLE
  8
0
 10
-0.5345
 20
-0.1239
 30
0.0
 40
0.025
  0
CIRCLE
  8
0
 10
-0.54465
 20
0.08465
 30
0.0
 40
0.025
  0
CIRCLE
  8
0
 10
-0.2495
 20
0.2984
 30
0.0
 40
0.025
  0
CIRCLE
  8
0
 10
-0.27485
 20
0.15595
 30
0.0
 40
0.025
  0
CIRCLE
  8
0
 10
-0.33595
 20
0.02875
 30
0.0
 40
0.025
  0
CIRCLE
  8
0
 10
-0.1528
 20
0.09485
 30
0.0
 40
0.025
  0
CIRCLE
  8
0
 10
0.06105
 20
0.02875
 30
0.0
 40
0.025
  0
CIRCLE
  8
0
 10
0.15775
 20
-0.0883
 30
0.0
 40
0.025
  0
CIRCLE
  8
0
 10
0.18315
 20
-0.1748
 30
0.0
 40
0.025
  0
CIRCLE
  8
0
 10
0.41735
 20
-0.1239
 30
0.0
 40
0.025
  0
CIRCLE
  8
0
 10
0.1985
 20
-0.28165
 30
0.0
 40
0.025
  0
CIRCLE
  8
0
 10
0.4885
 20
-0.3428
 30
0.0
 40
0.025
  0
CIRCLE
  8
0
 10
0.60555
 20
-0.3072
 30
0.0
 40
0.025
  0
CIRCLE
  8
0
 10
0.6565
 20
-0.07815
 30
0.0
 40
0.025
  0
CIRCLE
  8
0
 10
0.51905
 20
0.1204
 30
0.0
 40
0.025
  0
CIRCLE
  8
0
 10
0.2748
 20
0.02355
 30
0.0
 40
0.025
  0
CIRCLE
  8
0
 10
0.2392
 20
0.16615
 30
0.0
 40
0.025
  0
CIRCLE
  8
0
 10
0.15775
 20
0.13055
 30
0.0
 40
0.025
  0
CIRCLE
  8
0
 10
-0.1171
 20
-0.05775
 30
0.0
 40
0.025
  0
CIRCLE
  8
0
 10
-0.11205
 20
0.2221
 30
0.0
 40
0.025
  0
CIRCLE
  8
0
 10
-0.04075
 20
0.3595
 30
0.0
 40
0.025
  0
CIRCLE
  8
0
 10
0.1424
 20
0.29335
 30
0.0
 40
0.025
  0
CIRCLE
  8
0
 10
0.36645
 20
0.36465
 30
0.0
 40
0.025
  0
CIRCLE
  8
0
 10
0.3461
 20
0.1967
 30
0.0
 40
0.025
  0
CIRCLE
  8
0
 10
0.58015
 20
0.30355
 30
0.0
 40
0.025
  0
CIRCLE
  8
0
 10
0.4937
 20
0.5478
 30
0.0
 40
0.025
  0
CIRCLE
  8
0
 10
0.3511
 20
0.51225
 30
0.0
 40
0.025
  0
CIRCLE
  8
0
 10
0.1068
 20
0.5428
 30
0.0
 40
0.025
  0
CIRCLE
  8
0
 10
-0.1782
 20
0.4817
 30
0.0
 40
0.025
  0
CIRCLE
  8
0
 10
-0.4632
 20
0.29335
 30
0.0
 40
0.025
  0
CIRCLE
  8
0
 10
-0.35115
 20
0.51725
 30
0.0
 40
0.025
  0
CIRCLE
  8
0
 10
0.5001
 20
-0.05535
 30
0.0
 40
0.025
  0
ENDBLK
  8
0
  0
BLOCK
  8
0
  2
ZAS
 70
    64
 10
0.0
 20
0.0
 30
0.0
  3
ZAS
  0
CIRCLE
  8
0
 10
0.0
 20
0.0
 30
0.0
 40
0.045
  0
LINE
  8
0
 10
-0.2
 20
0.2
 30
0.0
 11
-0.2
 21
-0.2
 31
0.0
  0
LINE
  8
0
 10
0.2
 20
0.2
 30
0.0
 11
-0.2
 21
0.2
 31
0.0
  0
LINE
  8
0
 10
0.2
 20
-0.2
 30
0.0
 11
0.2
 21
0.2
 31
0.0
  0
LINE
  8
0
 10
-0.2
 20
-0.2
 30
0.0
 11
0.2
 21
-0.2
 31
0.0
  0
ENDBLK
  8
0
  0
BLOCK
  8
0
  2
ZND
 70
    64
 10
0.0
 20
0.0
 30
0.0
  3
ZND
  0
LINE
  8
0
 10
0.0
 20
0.0
 30
0.0
 11
0.25
 21
0.0
 31
0.0
  0
LINE
  8
0
 10
0.0
 20
0.5
 30
0.0
 11
0.0
 21
0.0
 31
0.0
  0
LINE
  8
0
 10
0.0
 20
1.36605
 30
0.0
 11
-0.5
 21
0.5
 31
0.0
  0
LINE
  8
0
 10
0.5
 20
0.5
 30
0.0
 11
0.0
 21
1.36605
 31
0.0
  0
LINE
  8
0
 10
-0.5
 20
0.5
 30
0.0
 11
0.5
 21
0.5
 31
0.0
  0
ENDBLK
  8
0
  0
BLOCK
  8
0
  2
ZNS
 70
    64
 10
0.0
 20
0.0
 30
0.0
  3
ZNS
  0
LINE
  8
0
 10
0.0
 20
0.0
 30
0.0
 11
0.25
 21
0.0
 31
0.0
  0
LINE
  8
0
 10
0.0
 20
0.5
 30
0.0
 11
0.0
 21
0.0
 31
0.0
  0
CIRCLE
  8
0
 10
0.0
 20
0.75
 30
0.0
 40
0.25
  0
CIRCLE
  8
0
 10
0.0
 20
1.25
 30
0.0
 40
0.25
  0
CIRCLE
  8
0
 10
0.0
 20
1.75
 30
0.0
 40
0.25
  0
ENDBLK
  8
0
  0
BLOCK
  8
0
  2
ZRD
 70
    64
 10
0.0
 20
0.0
 30
0.0
  3
ZRD
  0
ARC
  8
0
 10
0.5
 20
0.5
 30
0.0
 40
0.5
 50
90.0
 51
180.0
  0
ARC
  8
0
 10
0.5
 20
1.5
 30
0.0
 40
0.5
 50
90.0
 51
180.0
  0
ARC
  8
0
 10
-0.5
 20
1.0
 30
0.0
 40
0.5
 50
0.0
 51
90.0
  0
LINE
  8
0
 10
-0.5
 20
0.0
 30
0.0
 11
0.5
 21
0.0
 31
0.0
  0
LINE
  8
0
 10
0.0
 20
0.0
 30
0.0
 11
0.0
 21
1.5
 31
0.0
  0
ENDBLK
  8
0
  0
BLOCK
  8
0
  2
ZSA
 70
    64
 10
0.0
 20
0.0
 30
0.0
  3
ZSA
  0
LINE
  8
0
 10
-0.25
 20
0.0
 30
0.0
 11
0.25
 21
0.0
 31
0.0
  0
ENDBLK
  8
0
  0
BLOCK
  8
0
  2
ZSB
 70
    64
 10
0.0
 20
0.0
 30
0.0
  3
ZSB
  0
LINE
  8
0
 10
-0.25
 20
0.0
 30
0.0
 11
0.25
 21
0.0
 31
0.0
  0
ENDBLK
  8
0
  0
BLOCK
  8
0
  2
ZSC
 70
    64
 10
0.0
 20
0.0
 30
0.0
  3
ZSC
  0
LINE
  8
0
 10
-0.25
 20
0.0
 30
0.0
 11
0.25
 21
0.0
 31
0.0
  0
ENDBLK
  8
0
  0
BLOCK
  8
0
  2
ZSE
 70
    64
 10
0.0
 20
0.0
 30
0.0
  3
ZSE
  0
LINE
  8
0
 10
-0.25
 20
0.0
 30
0.0
 11
0.25
 21
0.0
 31
0.0
  0
ENDBLK
  8
0
  0
BLOCK
  8
0
  2
ZSG
 70
    64
 10
0.0
 20
0.0
 30
0.0
  3
ZSG
  0
LINE
  8
0
 10
-0.25
 20
0.0
 30
0.0
 11
0.25
 21
0.0
 31
0.0
  0
ENDBLK
  8
0
  0
BLOCK
  8
0
  2
ZSI
 70
    64
 10
0.0
 20
0.0
 30
0.0
  3
ZSI
  0
LINE
  8
0
 10
-0.25
 20
0.0
 30
0.0
 11
0.25
 21
0.0
 31
0.0
  0
ENDBLK
  8
0
  0
BLOCK
  8
0
  2
ZSK
 70
    64
 10
0.0
 20
0.0
 30
0.0
  3
ZSK
  0
LINE
  8
0
 10
-0.25
 20
0.0
 30
0.0
 11
0.25
 21
0.0
 31
0.0
  0
ENDBLK
  8
0
  0
BLOCK
  8
0
  2
ZSM
 70
    64
 10
0.0
 20
0.0
 30
0.0
  3
ZSM
  0
LINE
  8
0
 10
-0.25
 20
0.0
 30
0.0
 11
0.25
 21
0.0
 31
0.0
  0
ENDBLK
  8
0
  0
BLOCK
  8
0
  2
ZSN
 70
    64
 10
0.0
 20
0.0
 30
0.0
  3
ZSN
  0
LINE
  8
0
 10
-0.25
 20
0.0
 30
0.0
 11
0.25
 21
0.0
 31
0.0
  0
ENDBLK
  8
0
  0
BLOCK
  8
0
  2
ZSP
 70
    64
 10
0.0
 20
0.0
 30
0.0
  3
ZSP
  0
LINE
  8
0
 10
-0.25
 20
0.0
 30
0.0
 11
0.25
 21
0.0
 31
0.0
  0
ENDBLK
  8
0
  0
BLOCK
  8
0
  2
ZST
 70
    64
 10
0.0
 20
0.0
 30
0.0
  3
ZST
  0
LINE
  8
0
 10
-0.25
 20
0.0
 30
0.0
 11
0.25
 21
0.0
 31
0.0
  0
ENDBLK
  8
0
  0
BLOCK
  8
0
  2
ZSV
 70
    64
 10
0.0
 20
0.0
 30
0.0
  3
ZSV
  0
LINE
  8
0
 10
-0.25
 20
0.0
 30
0.0
 11
0.25
 21
0.0
 31
0.0
  0
ENDBLK
  8
0
  0
BLOCK
  8
0
  2
ZSW
 70
    64
 10
0.0
 20
0.0
 30
0.0
  3
ZSW
  0
LINE
  8
0
 10
-0.25
 20
0.0
 30
0.0
 11
0.25
 21
0.0
 31
0.0
  0
ENDBLK
  8
0
  0
BLOCK
  8
0
  2
ZSX
 70
    64
 10
0.0
 20
0.0
 30
0.0
  3
ZSX
  0
LINE
  8
0
 10
-0.25
 20
0.0
 30
0.0
 11
0.25
 21
0.0
 31
0.0
  0
ENDBLK
  8
0
  0
BLOCK
  8
0
  2
ZSZ
 70
    64
 10
0.0
 20
0.0
 30
0.0
  3
ZSZ
  0
LINE
  8
0
 10
-0.25
 20
0.0
 30
0.0
 11
0.25
 21
0.0
 31
0.0
  0
ENDBLK
  8
0
  0
BLOCK
  8
0
  2
ZWK
 70
    64
 10
0.0
 20
0.0
 30
0.0
  3
ZWK
  0
LINE
  8
0
 10
0.0032
 20
-0.86815
 30
0.0
 11
0.03865
 21
-0.86815
 31
0.0
  0
LINE
  8
0
 10
0.00275
 20
-0.76815
 30
0.0
 11
0.11295
 21
-0.76815
 31
0.0
  0
LINE
  8
0
 10
0.00235
 20
-0.66815
 30
0.0
 11
0.1873
 21
-0.66815
 31
0.0
  0
LINE
  8
0
 10
0.0019
 20
-0.56815
 30
0.0
 11
0.2616
 21
-0.56815
 31
0.0
  0
LINE
  8
0
 10
0.0015
 20
-0.46815
 30
0.0
 11
0.33595
 21
-0.46815
 31
0.0
  0
LINE
  8
0
 10
0.00105
 20
-0.36815
 30
0.0
 11
0.4103
 21
-0.36815
 31
0.0
  0
LINE
  8
0
 10
0.0006
 20
-0.26815
 30
0.0
 11
0.43575
 21
-0.26815
 31
0.0
  0
LINE
  8
0
 10
0.0002
 20
-0.16815
 30
0.0
 11
0.1314
 21
-0.16815
 31
0.0
  0
LINE
  8
0
 10
-1.05755
 20
-0.16815
 30
0.0
 11
-0.3606
 21
-0.16815
 31
0.0
  0
LINE
  8
0
 10
-0.92425
 20
-0.06815
 30
0.0
 11
-0.39395
 21
-0.06815
 31
0.0
  0
LINE
  8
0
 10
-0.7909
 20
0.03185
 30
0.0
 11
-0.4273
 21
0.03185
 31
0.0
  0
LINE
  8
0
 10
-0.65755
 20
0.13185
 30
0.0
 11
-0.4606
 21
0.13185
 31
0.0
  0
LINE
  8
0
 10
-0.52425
 20
0.23185
 30
0.0
 11
-0.49395
 21
0.23185
 31
0.0
  0
LINE
  8
0
 10
-0.2227
 20
0.33185
 30
0.0
 11
0.2227
 21
0.33185
 31
0.0
  0
LINE
  8
0
 10
-0.1894
 20
0.43185
 30
0.0
 11
0.1894
 21
0.43185
 31
0.0
  0
LINE
  8
0
 10
-0.15605
 20
0.53185
 30
0.0
 11
0.15605
 21
0.53185
 31
0.0
  0
LINE
  8
0
 10
-0.1227
 20
0.63185
 30
0.0
 11
0.1227
 21
0.63185
 31
0.0
  0
LINE
  8
0
 10
-0.0894
 20
0.73185
 30
0.0
 11
0.0894
 21
0.73185
 31
0.0
  0
LINE
  8
0
 10
-0.05605
 20
0.83185
 30
0.0
 11
0.05605
 21
0.83185
 31
0.0
  0
LINE
  8
0
 10
-0.0227
 20
0.93185
 30
0.0
 11
0.0227
 21
0.93185
 31
0.0
  0
LINE
  8
0
 10
0.0
 20
1.0
 30
0.0
 11
-0.25
 21
0.25
 31
0.0
  0
LINE
  8
0
 10
0.25
 20
0.25
 30
0.0
 11
0.0
 21
1.0
 31
0.0
  0
LINE
  8
0
 10
-0.25
 20
0.25
 30
0.0
 11
0.25
 21
0.25
 31
0.0
  0
LINE
  8
0
 10
0.0034
 20
-0.91555
 30
0.0
 11
0.475
 21
-0.28105
 31
0.0
  0
LINE
  8
0
 10
0.0
 20
-0.125
 30
0.0
 11
0.0034
 21
-0.91555
 31
0.0
  0
LINE
  8
0
 10
0.475
 20
-0.28105
 30
0.0
 11
0.0
 21
-0.125
 31
0.0
  0
LINE
  8
0
 10
-1.13245
 20
-0.22435
 30
0.0
 11
-0.3419
 21
-0.22435
 31
0.0
  0
LINE
  8
0
 10
-0.5
 20
0.25
 30
0.0
 11
-1.13245
 21
-0.22435
 31
0.0
  0
LINE
  8
0
 10
-0.3419
 20
-0.22435
 30
0.0
 11
-0.5
 21
0.25
 31
0.0
  0
ENDBLK
  8
0
  0
BLOCK
  8
0
  2
POLNOC
 70
    64
 10
0.0
 20
0.0
 30
0.0
  3
POLNOC
  0
LINE
  8
0
 10
4.5
 20
-1.0
 30
0.0
 11
9.5
 21
-1.0
 31
0.0
  0
LINE
  8
0
 10
9.5
 20
1.0
 30
0.0
 11
4.5
 21
-1.0
 31
0.0
  0
LINE
  8
0
 10
4.5
 20
1.0
 30
0.0
 11
9.5
 21
1.0
 31
0.0
  0
LINE
  8
0
 10
15.0
 20
2.0
 30
0.0
 11
15.0
 21
-2.5
 31
0.0
  0
LINE
  8
0
 10
45.0
 20
0.0
 30
0.0
 11
15.0
 21
2.0
 31
0.0
  0
LINE
  8
0
 10
0.0
 20
0.0
 30
0.0
 11
45.0
 21
0.0
 31
0.0
  0
ENDBLK
  8
0
  0
ENDSEC
  0
SECTION
  2
ENTITIES
  0
ENDSEC
  0
EOF
