  0
SECTION
  2
HEADER
  9
$ACADVER
  1
AC1006
  9
$EXTMIN
 10
1.000000
 20
-4.300000
  9
$EXTMAX
 10
258.800000
 20
190.200000
  9
$LTSCALE
 40
10.000000
  9
$PDMODE
 70
    35
  9
$PDSIZE
 40
8.000000
  0
ENDSEC
  0
SECTION
  2
TABLES
  0
TABLE
  2
LTYPE
 70
     9
  0
LTYPE
  2
CONTINUOUS
 70
    64
  3
Solid line
 72
    65
 73
     0
 40
0.000000
  0
LTYPE
  2
DASHED
 70
    64
  3
__ __ __ __ __ __ __ __ __ __ __ __ __ __ __
 72
    65
 73
     2
 40
0.075000
 49
0.050000
 49
-0.025000
  0
LTYPE
  2
HIDDEN
 70
    64
  3
 _ _ _ _ _ _ _ _ _ _ _ _ _ _ _ _ _ _ _ _ _ _
 72
    65
 73
     2
 40
0.037500
 49
0.025000
 49
-0.012500
  0
LTYPE
  2
CENTER
 70
    64
  3
____ _ ____ _ ____ _ ____ _ ____ _ ____ _ ____
 72
    65
 73
     4
 40
0.200000
 49
0.125000
 49
-0.025000
 49
0.025000
 49
-0.025000
  0
LTYPE
  2
PHANTOM
 70
    64
  3
_____ _ _ _____ _ _ _____ _ _ _____ _ _ ____
 72
    65
 73
     6
 40
0.250000
 49
0.125000
 49
-0.025000
 49
0.025000
 49
-0.025000
 49
0.025000
 49
-0.025000
  0
LTYPE
  2
DOT
 70
    64
  3
...............................................
 72
    65
 73
     2
 40
0.025000
 49
0.000000
 49
-0.025000
  0
LTYPE
  2
DASHDOT
 70
    64
  3
__ . __ . __ . __ . __ . __ . __ . __ . __ . __
 72
    65
 73
     4
 40
0.100000
 49
0.050000
 49
-0.025000
 49
0.000000
 49
-0.025000
  0
LTYPE
  2
BORDER
 70
    64
  3
__ __ . __ __ . __ __ . __ __ . __ __ . __ __
 72
    65
 73
     6
 40
0.175000
 49
0.050000
 49
-0.025000
 49
0.050000
 49
-0.025000
 49
0.000000
 49
-0.025000
  0
LTYPE
  2
DIVIDE
 70
    64
  3
__ . . __ . . __ . . __ . . __ . . __ . . __
 72
    65
 73
     6
 40
0.125000
 49
0.050000
 49
-0.025000
 49
0.000000
 49
-0.025000
 49
0.000000
 49
-0.025000
  0
LTYPE
  2
DOTDOT
 70
    64
  3
 . .  . .  . .  . .  . .  . . 
 72
    65
 73
     5
 40
0.055000
 49
-0.025000
 49
0.000000
 49
-0.025000
 49
0.000000
 49
-0.025000
  0
ENDTAB
  0
TABLE
  2
STYLE
 70
     6
  0
STYLE
 70
     0
  2
SN0
 40
0.000000
 41
0.100000
 50
0.000000
 71
     0
 42
0.000000
  3
ROMANS
  0
STYLE
 70
    68
  2
SV0
 40
0.000000
 41
0.100000
 50
0.000000
 71
     0
 42
0.000000
  3
ROMANS
  0
STYLE
 70
     0
  2
SN1
 40
0.000000
 41
0.100000
 50
0.000000
 71
     0
 42
0.000000
  3
ROMANS
  0
STYLE
 70
    68
  2
SV1
 40
0.000000
 41
0.100000
 50
0.000000
 71
     0
 42
0.000000
  3
ROMANS
  0
STYLE
 70
     0
  2
SN2
 40
0.000000
 41
0.100000
 50
0.000000
 71
     0
 42
0.000000
  3
ROMANS
  0
STYLE
 70
    68
  2
SV2
 40
0.000000
 41
0.100000
 50
0.000000
 71
     0
 42
0.000000
  3
ROMANS
  0
ENDTAB
  0
TABLE
  2
LAYER
 70
5
  0
LAYER
  2
FEATURES
 70
64
 62
7
  6
CONTINUOUS
  0
LAYER
  2
FEATURES_LB
 70
64
 62
7
  6
CONTINUOUS
  0
LAYER
  2
CONTOURS
 70
64
 62
7
  6
CONTINUOUS
  0
LAYER
  2
CONTOURS_LB
 70
64
 62
7
  6
CONTINUOUS
  0
LAYER
  2
LEGEND
 70
64
 62
7
  6
CONTINUOUS
  0
ENDTAB
  0
ENDSEC
  0
SECTION
  2
ENTITIES
  0
POLYLINE
  8
FEATURES
 62
     1
  6
CONTINUOUS
 66
     1
 40
0.100000
 41
0.100000
  0
VERTEX
  8
FEATURES
 62
     1
  6
CONTINUOUS
 10
171.900000
 20
175.900000
  0
VERTEX
  8
FEATURES
 62
     1
  6
CONTINUOUS
 10
154.600000
 20
154.400000
  0
VERTEX
  8
FEATURES
 62
     1
  6
CONTINUOUS
 10
140.100000
 20
137.100000
  0
VERTEX
  8
FEATURES
 62
     1
  6
CONTINUOUS
 10
124.500000
 20
118.300000
  0
VERTEX
  8
FEATURES
 62
     1
  6
CONTINUOUS
 10
106.900000
 20
98.700000
  0
VERTEX
  8
FEATURES
 62
     1
  6
CONTINUOUS
 10
89.700000
 20
82.900000
  0
VERTEX
  8
FEATURES
 62
     1
  6
CONTINUOUS
 10
75.000000
 20
70.600000
  0
VERTEX
  8
FEATURES
 62
     1
  6
CONTINUOUS
 10
56.900000
 20
57.600000
  0
VERTEX
  8
FEATURES
 62
     1
  6
CONTINUOUS
 10
42.100000
 20
50.400000
  0
VERTEX
  8
FEATURES
 62
     1
  6
CONTINUOUS
 10
18.600000
 20
40.700000
  0
VERTEX
  8
FEATURES
 62
     1
  6
CONTINUOUS
 10
16.900000
 20
39.700000
  0
SEQEND
  8
FEATURES
  0
POLYLINE
  8
FEATURES
 62
     3
  6
CONTINUOUS
 66
     1
 40
0.100000
 41
0.100000
  0
VERTEX
  8
FEATURES
 62
     3
  6
CONTINUOUS
 10
16.900000
 20
22.500000
  0
VERTEX
  8
FEATURES
 62
     3
  6
CONTINUOUS
 10
17.100000
 20
22.600000
  0
VERTEX
  8
FEATURES
 62
     3
  6
CONTINUOUS
 10
33.100000
 20
30.200000
  0
VERTEX
  8
FEATURES
 62
     3
  6
CONTINUOUS
 10
49.200000
 20
39.700000
  0
VERTEX
  8
FEATURES
 62
     3
  6
CONTINUOUS
 10
62.000000
 20
47.800000
  0
VERTEX
  8
FEATURES
 62
     3
  6
CONTINUOUS
 10
75.500000
 20
58.700000
  0
VERTEX
  8
FEATURES
 62
     3
  6
CONTINUOUS
 10
87.600000
 20
68.400000
  0
VERTEX
  8
FEATURES
 62
     3
  6
CONTINUOUS
 10
98.100000
 20
76.700000
  0
VERTEX
  8
FEATURES
 62
     3
  6
CONTINUOUS
 10
105.100000
 20
82.800000
  0
VERTEX
  8
FEATURES
 62
     3
  6
CONTINUOUS
 10
116.500000
 20
87.300000
  0
VERTEX
  8
FEATURES
 62
     3
  6
CONTINUOUS
 10
115.800000
 20
83.400000
  0
VERTEX
  8
FEATURES
 62
     3
  6
CONTINUOUS
 10
115.000000
 20
77.800000
  0
VERTEX
  8
FEATURES
 62
     3
  6
CONTINUOUS
 10
110.600000
 20
69.100000
  0
VERTEX
  8
FEATURES
 62
     3
  6
CONTINUOUS
 10
108.000000
 20
63.700000
  0
VERTEX
  8
FEATURES
 62
     3
  6
CONTINUOUS
 10
106.200000
 20
57.700000
  0
VERTEX
  8
FEATURES
 62
     3
  6
CONTINUOUS
 10
104.900000
 20
44.600000
  0
VERTEX
  8
FEATURES
 62
     3
  6
CONTINUOUS
 10
94.100000
 20
33.500000
  0
VERTEX
  8
FEATURES
 62
     3
  6
CONTINUOUS
 10
88.800000
 20
24.800000
  0
VERTEX
  8
FEATURES
 62
     3
  6
CONTINUOUS
 10
86.900000
 20
18.000000
  0
VERTEX
  8
FEATURES
 62
     3
  6
CONTINUOUS
 10
74.800000
 20
7.100000
  0
VERTEX
  8
FEATURES
 62
     3
  6
CONTINUOUS
 10
68.700000
 20
2.000000
  0
SEQEND
  8
FEATURES
  0
POLYLINE
  8
CONTOURS
 62
     0
  6
CONTINUOUS
 66
     1
 40
0.100000
 41
0.100000
  0
VERTEX
  8
CONTOURS
 62
     0
  6
CONTINUOUS
 10
95.700000
 20
2.000000
  0
VERTEX
  8
CONTOURS
 62
     0
  6
CONTINUOUS
 10
96.200000
 20
3.400000
  0
VERTEX
  8
CONTOURS
 62
     0
  6
CONTINUOUS
 10
96.700000
 20
5.100000
  0
VERTEX
  8
CONTOURS
 62
     0
  6
CONTINUOUS
 10
97.300000
 20
6.700000
  0
VERTEX
  8
CONTOURS
 62
     0
  6
CONTINUOUS
 10
97.700000
 20
8.400000
  0
VERTEX
  8
CONTOURS
 62
     0
  6
CONTINUOUS
 10
98.000000
 20
10.100000
  0
VERTEX
  8
CONTOURS
 62
     0
  6
CONTINUOUS
 10
98.400000
 20
11.700000
  0
VERTEX
  8
CONTOURS
 62
     0
  6
CONTINUOUS
 10
98.700000
 20
13.600000
  0
VERTEX
  8
CONTOURS
 62
     0
  6
CONTINUOUS
 10
98.900000
 20
15.300000
  0
VERTEX
  8
CONTOURS
 62
     0
  6
CONTINUOUS
 10
99.000000
 20
17.300000
  0
VERTEX
  8
CONTOURS
 62
     0
  6
CONTINUOUS
 10
99.100000
 20
19.300000
  0
VERTEX
  8
CONTOURS
 62
     0
  6
CONTINUOUS
 10
99.200000
 20
21.300000
  0
VERTEX
  8
CONTOURS
 62
     0
  6
CONTINUOUS
 10
99.300000
 20
23.500000
  0
VERTEX
  8
CONTOURS
 62
     0
  6
CONTINUOUS
 10
99.000000
 20
25.400000
  0
VERTEX
  8
CONTOURS
 62
     0
  6
CONTINUOUS
 10
99.000000
 20
27.300000
  0
VERTEX
  8
CONTOURS
 62
     0
  6
CONTINUOUS
 10
98.800000
 20
29.200000
  0
VERTEX
  8
CONTOURS
 62
     0
  6
CONTINUOUS
 10
98.700000
 20
31.100000
  0
VERTEX
  8
CONTOURS
 62
     0
  6
CONTINUOUS
 10
98.600000
 20
33.100000
  0
VERTEX
  8
CONTOURS
 62
     0
  6
CONTINUOUS
 10
98.500000
 20
35.100000
  0
VERTEX
  8
CONTOURS
 62
     0
  6
CONTINUOUS
 10
98.400000
 20
37.000000
  0
VERTEX
  8
CONTOURS
 62
     0
  6
CONTINUOUS
 10
98.200000
 20
38.800000
  0
VERTEX
  8
CONTOURS
 62
     0
  6
CONTINUOUS
 10
98.100000
 20
40.700000
  0
VERTEX
  8
CONTOURS
 62
     0
  6
CONTINUOUS
 10
97.900000
 20
42.500000
  0
VERTEX
  8
CONTOURS
 62
     0
  6
CONTINUOUS
 10
97.700000
 20
44.300000
  0
VERTEX
  8
CONTOURS
 62
     0
  6
CONTINUOUS
 10
97.600000
 20
46.200000
  0
VERTEX
  8
CONTOURS
 62
     0
  6
CONTINUOUS
 10
97.200000
 20
47.800000
  0
VERTEX
  8
CONTOURS
 62
     0
  6
CONTINUOUS
 10
96.300000
 20
49.100000
  0
VERTEX
  8
CONTOURS
 62
     0
  6
CONTINUOUS
 10
95.100000
 20
50.000000
  0
VERTEX
  8
CONTOURS
 62
     0
  6
CONTINUOUS
 10
93.700000
 20
50.700000
  0
VERTEX
  8
CONTOURS
 62
     0
  6
CONTINUOUS
 10
92.000000
 20
51.000000
  0
VERTEX
  8
CONTOURS
 62
     0
  6
CONTINUOUS
 10
90.200000
 20
51.200000
  0
VERTEX
  8
CONTOURS
 62
     0
  6
CONTINUOUS
 10
88.200000
 20
51.300000
  0
VERTEX
  8
CONTOURS
 62
     0
  6
CONTINUOUS
 10
86.200000
 20
51.300000
  0
VERTEX
  8
CONTOURS
 62
     0
  6
CONTINUOUS
 10
84.200000
 20
51.200000
  0
VERTEX
  8
CONTOURS
 62
     0
  6
CONTINUOUS
 10
82.100000
 20
51.200000
  0
VERTEX
  8
CONTOURS
 62
     0
  6
CONTINUOUS
 10
80.000000
 20
51.200000
  0
VERTEX
  8
CONTOURS
 62
     0
  6
CONTINUOUS
 10
78.100000
 20
51.200000
  0
VERTEX
  8
CONTOURS
 62
     0
  6
CONTINUOUS
 10
76.100000
 20
51.200000
  0
VERTEX
  8
CONTOURS
 62
     0
  6
CONTINUOUS
 10
74.100000
 20
51.300000
  0
VERTEX
  8
CONTOURS
 62
     0
  6
CONTINUOUS
 10
72.400000
 20
51.700000
  0
VERTEX
  8
CONTOURS
 62
     0
  6
CONTINUOUS
 10
70.700000
 20
52.200000
  0
VERTEX
  8
CONTOURS
 62
     0
  6
CONTINUOUS
 10
69.100000
 20
52.700000
  0
VERTEX
  8
CONTOURS
 62
     0
  6
CONTINUOUS
 10
67.600000
 20
53.200000
  0
VERTEX
  8
CONTOURS
 62
     0
  6
CONTINUOUS
 10
66.100000
 20
53.700000
  0
VERTEX
  8
CONTOURS
 62
     0
  6
CONTINUOUS
 10
64.500000
 20
54.200000
  0
VERTEX
  8
CONTOURS
 62
     0
  6
CONTINUOUS
 10
62.900000
 20
54.800000
  0
VERTEX
  8
CONTOURS
 62
     0
  6
CONTINUOUS
 10
61.400000
 20
55.300000
  0
VERTEX
  8
CONTOURS
 62
     0
  6
CONTINUOUS
 10
59.900000
 20
56.000000
  0
VERTEX
  8
CONTOURS
 62
     0
  6
CONTINUOUS
 10
58.400000
 20
56.500000
  0
VERTEX
  8
CONTOURS
 62
     0
  6
CONTINUOUS
 10
56.900000
 20
57.100000
  0
VERTEX
  8
CONTOURS
 62
     0
  6
CONTINUOUS
 10
55.300000
 20
57.700000
  0
VERTEX
  8
CONTOURS
 62
     0
  6
CONTINUOUS
 10
53.600000
 20
58.100000
  0
VERTEX
  8
CONTOURS
 62
     0
  6
CONTINUOUS
 10
51.800000
 20
58.300000
  0
VERTEX
  8
CONTOURS
 62
     0
  6
CONTINUOUS
 10
49.700000
 20
58.500000
  0
VERTEX
  8
CONTOURS
 62
     0
  6
CONTINUOUS
 10
47.700000
 20
58.600000
  0
VERTEX
  8
CONTOURS
 62
     0
  6
CONTINUOUS
 10
45.700000
 20
58.600000
  0
VERTEX
  8
CONTOURS
 62
     0
  6
CONTINUOUS
 10
43.700000
 20
58.500000
  0
VERTEX
  8
CONTOURS
 62
     0
  6
CONTINUOUS
 10
41.800000
 20
58.500000
  0
VERTEX
  8
CONTOURS
 62
     0
  6
CONTINUOUS
 10
39.900000
 20
58.300000
  0
VERTEX
  8
CONTOURS
 62
     0
  6
CONTINUOUS
 10
38.000000
 20
58.100000
  0
VERTEX
  8
CONTOURS
 62
     0
  6
CONTINUOUS
 10
36.300000
 20
57.800000
  0
VERTEX
  8
CONTOURS
 62
     0
  6
CONTINUOUS
 10
34.500000
 20
57.600000
  0
VERTEX
  8
CONTOURS
 62
     0
  6
CONTINUOUS
 10
32.700000
 20
57.500000
  0
VERTEX
  8
CONTOURS
 62
     0
  6
CONTINUOUS
 10
30.800000
 20
57.400000
  0
VERTEX
  8
CONTOURS
 62
     0
  6
CONTINUOUS
 10
28.800000
 20
57.700000
  0
VERTEX
  8
CONTOURS
 62
     0
  6
CONTINUOUS
 10
26.900000
 20
57.900000
  0
VERTEX
  8
CONTOURS
 62
     0
  6
CONTINUOUS
 10
25.300000
 20
58.400000
  0
VERTEX
  8
CONTOURS
 62
     0
  6
CONTINUOUS
 10
23.800000
 20
58.900000
  0
VERTEX
  8
CONTOURS
 62
     0
  6
CONTINUOUS
 10
22.400000
 20
59.500000
  0
VERTEX
  8
CONTOURS
 62
     0
  6
CONTINUOUS
 10
21.200000
 20
60.200000
  0
VERTEX
  8
CONTOURS
 62
     0
  6
CONTINUOUS
 10
20.000000
 20
61.100000
  0
VERTEX
  8
CONTOURS
 62
     0
  6
CONTINUOUS
 10
18.900000
 20
62.100000
  0
VERTEX
  8
CONTOURS
 62
     0
  6
CONTINUOUS
 10
17.900000
 20
63.100000
  0
VERTEX
  8
CONTOURS
 62
     0
  6
CONTINUOUS
 10
17.000000
 20
64.400000
  0
VERTEX
  8
CONTOURS
 62
     0
  6
CONTINUOUS
 10
16.900000
 20
64.500000
  0
SEQEND
  8
CONTOURS
  0
POLYLINE
  8
CONTOURS
 62
     0
  6
CONTINUOUS
 66
     1
 40
0.100000
 41
0.100000
  0
VERTEX
  8
CONTOURS
 62
     0
  6
CONTINUOUS
 10
131.000000
 20
2.000000
  0
VERTEX
  8
CONTOURS
 62
     0
  6
CONTINUOUS
 10
132.000000
 20
15.300000
  0
VERTEX
  8
CONTOURS
 62
     0
  6
CONTINUOUS
 10
132.000000
 20
17.400000
  0
VERTEX
  8
CONTOURS
 62
     0
  6
CONTINUOUS
 10
132.100000
 20
19.300000
  0
VERTEX
  8
CONTOURS
 62
     0
  6
CONTINUOUS
 10
132.200000
 20
21.300000
  0
VERTEX
  8
CONTOURS
 62
     0
  6
CONTINUOUS
 10
132.000000
 20
23.200000
  0
VERTEX
  8
CONTOURS
 62
     0
  6
CONTINUOUS
 10
131.900000
 20
25.200000
  0
VERTEX
  8
CONTOURS
 62
     0
  6
CONTINUOUS
 10
129.300000
 20
40.700000
  0
VERTEX
  8
CONTOURS
 62
     0
  6
CONTINUOUS
 10
129.000000
 20
42.400000
  0
VERTEX
  8
CONTOURS
 62
     0
  6
CONTINUOUS
 10
128.700000
 20
44.000000
  0
VERTEX
  8
CONTOURS
 62
     0
  6
CONTINUOUS
 10
128.500000
 20
45.800000
  0
VERTEX
  8
CONTOURS
 62
     0
  6
CONTINUOUS
 10
128.200000
 20
47.600000
  0
VERTEX
  8
CONTOURS
 62
     0
  6
CONTINUOUS
 10
127.900000
 20
49.300000
  0
VERTEX
  8
CONTOURS
 62
     0
  6
CONTINUOUS
 10
127.600000
 20
51.000000
  0
VERTEX
  8
CONTOURS
 62
     0
  6
CONTINUOUS
 10
127.400000
 20
52.800000
  0
VERTEX
  8
CONTOURS
 62
     0
  6
CONTINUOUS
 10
125.700000
 20
66.600000
  0
VERTEX
  8
CONTOURS
 62
     0
  6
CONTINUOUS
 10
125.600000
 20
68.500000
  0
VERTEX
  8
CONTOURS
 62
     0
  6
CONTINUOUS
 10
125.600000
 20
70.500000
  0
VERTEX
  8
CONTOURS
 62
     0
  6
CONTINUOUS
 10
125.600000
 20
72.600000
  0
VERTEX
  8
CONTOURS
 62
     0
  6
CONTINUOUS
 10
125.500000
 20
74.600000
  0
VERTEX
  8
CONTOURS
 62
     0
  6
CONTINUOUS
 10
122.500000
 20
87.300000
  0
VERTEX
  8
CONTOURS
 62
     0
  6
CONTINUOUS
 10
121.700000
 20
88.600000
  0
VERTEX
  8
CONTOURS
 62
     0
  6
CONTINUOUS
 10
120.800000
 20
89.800000
  0
VERTEX
  8
CONTOURS
 62
     0
  6
CONTINUOUS
 10
119.900000
 20
90.900000
  0
VERTEX
  8
CONTOURS
 62
     0
  6
CONTINUOUS
 10
118.900000
 20
92.000000
  0
VERTEX
  8
CONTOURS
 62
     0
  6
CONTINUOUS
 10
117.900000
 20
93.000000
  0
VERTEX
  8
CONTOURS
 62
     0
  6
CONTINUOUS
 10
116.900000
 20
94.100000
  0
VERTEX
  8
CONTOURS
 62
     0
  6
CONTINUOUS
 10
115.700000
 20
94.900000
  0
VERTEX
  8
CONTOURS
 62
     0
  6
CONTINUOUS
 10
106.600000
 20
97.200000
  0
VERTEX
  8
CONTOURS
 62
     0
  6
CONTINUOUS
 10
104.700000
 20
97.100000
  0
VERTEX
  8
CONTOURS
 62
     0
  6
CONTINUOUS
 10
102.800000
 20
97.000000
  0
VERTEX
  8
CONTOURS
 62
     0
  6
CONTINUOUS
 10
100.900000
 20
97.000000
  0
VERTEX
  8
CONTOURS
 62
     0
  6
CONTINUOUS
 10
99.000000
 20
96.800000
  0
VERTEX
  8
CONTOURS
 62
     0
  6
CONTINUOUS
 10
97.100000
 20
96.700000
  0
VERTEX
  8
CONTOURS
 62
     0
  6
CONTINUOUS
 10
82.800000
 20
95.600000
  0
VERTEX
  8
CONTOURS
 62
     0
  6
CONTINUOUS
 10
81.000000
 20
95.400000
  0
VERTEX
  8
CONTOURS
 62
     0
  6
CONTINUOUS
 10
79.200000
 20
95.100000
  0
VERTEX
  8
CONTOURS
 62
     0
  6
CONTINUOUS
 10
77.700000
 20
94.500000
  0
VERTEX
  8
CONTOURS
 62
     0
  6
CONTINUOUS
 10
76.400000
 20
93.900000
  0
VERTEX
  8
CONTOURS
 62
     0
  6
CONTINUOUS
 10
64.600000
 20
89.100000
  0
VERTEX
  8
CONTOURS
 62
     0
  6
CONTINUOUS
 10
63.000000
 20
88.700000
  0
VERTEX
  8
CONTOURS
 62
     0
  6
CONTINUOUS
 10
61.100000
 20
88.400000
  0
VERTEX
  8
CONTOURS
 62
     0
  6
CONTINUOUS
 10
59.200000
 20
88.400000
  0
VERTEX
  8
CONTOURS
 62
     0
  6
CONTINUOUS
 10
57.400000
 20
88.600000
  0
VERTEX
  8
CONTOURS
 62
     0
  6
CONTINUOUS
 10
55.600000
 20
88.800000
  0
VERTEX
  8
CONTOURS
 62
     0
  6
CONTINUOUS
 10
54.200000
 20
89.400000
  0
VERTEX
  8
CONTOURS
 62
     0
  6
CONTINUOUS
 10
41.700000
 20
99.900000
  0
VERTEX
  8
CONTOURS
 62
     0
  6
CONTINUOUS
 10
40.600000
 20
100.800000
  0
VERTEX
  8
CONTOURS
 62
     0
  6
CONTINUOUS
 10
39.500000
 20
101.800000
  0
VERTEX
  8
CONTOURS
 62
     0
  6
CONTINUOUS
 10
38.500000
 20
102.800000
  0
VERTEX
  8
CONTOURS
 62
     0
  6
CONTINUOUS
 10
37.500000
 20
103.800000
  0
VERTEX
  8
CONTOURS
 62
     0
  6
CONTINUOUS
 10
36.600000
 20
104.900000
  0
VERTEX
  8
CONTOURS
 62
     0
  6
CONTINUOUS
 10
35.500000
 20
105.900000
  0
VERTEX
  8
CONTOURS
 62
     0
  6
CONTINUOUS
 10
34.500000
 20
107.100000
  0
VERTEX
  8
CONTOURS
 62
     0
  6
CONTINUOUS
 10
33.500000
 20
108.300000
  0
VERTEX
  8
CONTOURS
 62
     0
  6
CONTINUOUS
 10
32.700000
 20
109.500000
  0
VERTEX
  8
CONTOURS
 62
     0
  6
CONTINUOUS
 10
31.600000
 20
110.600000
  0
VERTEX
  8
CONTOURS
 62
     0
  6
CONTINUOUS
 10
30.600000
 20
111.800000
  0
VERTEX
  8
CONTOURS
 62
     0
  6
CONTINUOUS
 10
29.600000
 20
113.100000
  0
VERTEX
  8
CONTOURS
 62
     0
  6
CONTINUOUS
 10
17.000000
 20
127.000000
  0
VERTEX
  8
CONTOURS
 62
     0
  6
CONTINUOUS
 10
16.900000
 20
127.100000
  0
SEQEND
  8
CONTOURS
  0
POLYLINE
  8
CONTOURS
 62
     0
  6
CONTINUOUS
 66
     1
 40
0.100000
 41
0.100000
  0
VERTEX
  8
CONTOURS
 62
     0
  6
CONTINUOUS
 10
112.400000
 20
2.000000
  0
VERTEX
  8
CONTOURS
 62
     0
  6
CONTINUOUS
 10
113.100000
 20
3.300000
  0
VERTEX
  8
CONTOURS
 62
     0
  6
CONTINUOUS
 10
113.700000
 20
4.900000
  0
VERTEX
  8
CONTOURS
 62
     0
  6
CONTINUOUS
 10
114.200000
 20
6.700000
  0
VERTEX
  8
CONTOURS
 62
     0
  6
CONTINUOUS
 10
114.500000
 20
8.300000
  0
VERTEX
  8
CONTOURS
 62
     0
  6
CONTINUOUS
 10
113.100000
 20
28.800000
  0
VERTEX
  8
CONTOURS
 62
     0
  6
CONTINUOUS
 10
112.700000
 20
30.400000
  0
VERTEX
  8
CONTOURS
 62
     0
  6
CONTINUOUS
 10
112.500000
 20
32.300000
  0
VERTEX
  8
CONTOURS
 62
     0
  6
CONTINUOUS
 10
112.400000
 20
34.300000
  0
VERTEX
  8
CONTOURS
 62
     0
  6
CONTINUOUS
 10
112.000000
 20
36.000000
  0
VERTEX
  8
CONTOURS
 62
     0
  6
CONTINUOUS
 10
111.700000
 20
37.800000
  0
VERTEX
  8
CONTOURS
 62
     0
  6
CONTINUOUS
 10
111.400000
 20
39.500000
  0
VERTEX
  8
CONTOURS
 62
     0
  6
CONTINUOUS
 10
111.200000
 20
41.400000
  0
VERTEX
  8
CONTOURS
 62
     0
  6
CONTINUOUS
 10
110.900000
 20
60.500000
  0
VERTEX
  8
CONTOURS
 62
     0
  6
CONTINUOUS
 10
111.000000
 20
62.400000
  0
VERTEX
  8
CONTOURS
 62
     0
  6
CONTINUOUS
 10
111.100000
 20
64.400000
  0
VERTEX
  8
CONTOURS
 62
     0
  6
CONTINUOUS
 10
111.000000
 20
66.400000
  0
VERTEX
  8
CONTOURS
 62
     0
  6
CONTINUOUS
 10
110.800000
 20
68.100000
  0
VERTEX
  8
CONTOURS
 62
     0
  6
CONTINUOUS
 10
110.400000
 20
69.900000
  0
VERTEX
  8
CONTOURS
 62
     0
  6
CONTINUOUS
 10
106.300000
 20
80.000000
  0
VERTEX
  8
CONTOURS
 62
     0
  6
CONTINUOUS
 10
105.200000
 20
80.800000
  0
VERTEX
  8
CONTOURS
 62
     0
  6
CONTINUOUS
 10
97.100000
 20
80.200000
  0
VERTEX
  8
CONTOURS
 62
     0
  6
CONTINUOUS
 10
95.600000
 20
79.700000
  0
VERTEX
  8
CONTOURS
 62
     0
  6
CONTINUOUS
 10
93.900000
 20
79.100000
  0
VERTEX
  8
CONTOURS
 62
     0
  6
CONTINUOUS
 10
92.500000
 20
78.500000
  0
VERTEX
  8
CONTOURS
 62
     0
  6
CONTINUOUS
 10
91.200000
 20
77.800000
  0
VERTEX
  8
CONTOURS
 62
     0
  6
CONTINUOUS
 10
89.900000
 20
77.100000
  0
VERTEX
  8
CONTOURS
 62
     0
  6
CONTINUOUS
 10
88.400000
 20
76.300000
  0
VERTEX
  8
CONTOURS
 62
     0
  6
CONTINUOUS
 10
77.100000
 20
71.600000
  0
VERTEX
  8
CONTOURS
 62
     0
  6
CONTINUOUS
 10
75.400000
 20
71.300000
  0
VERTEX
  8
CONTOURS
 62
     0
  6
CONTINUOUS
 10
73.600000
 20
71.100000
  0
VERTEX
  8
CONTOURS
 62
     0
  6
CONTINUOUS
 10
71.800000
 20
70.900000
  0
VERTEX
  8
CONTOURS
 62
     0
  6
CONTINUOUS
 10
69.700000
 20
70.900000
  0
VERTEX
  8
CONTOURS
 62
     0
  6
CONTINUOUS
 10
67.600000
 20
71.000000
  0
VERTEX
  8
CONTOURS
 62
     0
  6
CONTINUOUS
 10
65.900000
 20
71.300000
  0
VERTEX
  8
CONTOURS
 62
     0
  6
CONTINUOUS
 10
49.000000
 20
77.400000
  0
VERTEX
  8
CONTOURS
 62
     0
  6
CONTINUOUS
 10
47.700000
 20
78.100000
  0
VERTEX
  8
CONTOURS
 62
     0
  6
CONTINUOUS
 10
46.300000
 20
78.700000
  0
VERTEX
  8
CONTOURS
 62
     0
  6
CONTINUOUS
 10
44.900000
 20
79.400000
  0
VERTEX
  8
CONTOURS
 62
     0
  6
CONTINUOUS
 10
43.600000
 20
80.200000
  0
VERTEX
  8
CONTOURS
 62
     0
  6
CONTINUOUS
 10
42.300000
 20
81.000000
  0
VERTEX
  8
CONTOURS
 62
     0
  6
CONTINUOUS
 10
40.800000
 20
81.700000
  0
VERTEX
  8
CONTOURS
 62
     0
  6
CONTINUOUS
 10
39.300000
 20
82.500000
  0
VERTEX
  8
CONTOURS
 62
     0
  6
CONTINUOUS
 10
38.100000
 20
83.200000
  0
VERTEX
  8
CONTOURS
 62
     0
  6
CONTINUOUS
 10
36.800000
 20
84.200000
  0
VERTEX
  8
CONTOURS
 62
     0
  6
CONTINUOUS
 10
35.400000
 20
84.900000
  0
VERTEX
  8
CONTOURS
 62
     0
  6
CONTINUOUS
 10
33.900000
 20
85.700000
  0
VERTEX
  8
CONTOURS
 62
     0
  6
CONTINUOUS
 10
17.400000
 20
97.000000
  0
VERTEX
  8
CONTOURS
 62
     0
  6
CONTINUOUS
 10
16.900000
 20
97.400000
  0
SEQEND
  8
CONTOURS
  0
POLYLINE
  8
FEATURES
 62
     1
  6
CONTINUOUS
 66
     1
 40
0.100000
 41
0.100000
  0
VERTEX
  8
FEATURES
 62
     1
  6
CONTINUOUS
 10
128.300000
 20
109.900000
  0
VERTEX
  8
FEATURES
 62
     1
  6
CONTINUOUS
 10
125.100000
 20
104.600000
  0
VERTEX
  8
FEATURES
 62
     1
  6
CONTINUOUS
 10
122.400000
 20
99.900000
  0
VERTEX
  8
FEATURES
 62
     1
  6
CONTINUOUS
 10
121.100000
 20
94.100000
  0
VERTEX
  8
FEATURES
 62
     1
  6
CONTINUOUS
 10
116.900000
 20
91.800000
  0
VERTEX
  8
FEATURES
 62
     1
  6
CONTINUOUS
 10
116.700000
 20
87.000000
  0
VERTEX
  8
FEATURES
 62
     1
  6
CONTINUOUS
 10
123.400000
 20
94.000000
  0
VERTEX
  8
FEATURES
 62
     1
  6
CONTINUOUS
 10
125.900000
 20
102.100000
  0
VERTEX
  8
FEATURES
 62
     1
  6
CONTINUOUS
 10
128.200000
 20
107.200000
  0
VERTEX
  8
FEATURES
 62
     1
  6
CONTINUOUS
 10
128.300000
 20
109.900000
  0
SEQEND
  8
FEATURES
  0
POLYLINE
  8
FEATURES
 62
     0
  6
CONTINUOUS
 66
     1
 40
0.000000
 41
0.000000
  0
VERTEX
  8
FEATURES
 62
     0
  6
CONTINUOUS
 10
171.900000
 20
152.400000
  0
VERTEX
  8
FEATURES
 62
     0
  6
CONTINUOUS
 10
171.100000
 20
151.700000
  0
VERTEX
  8
FEATURES
 62
     0
  6
CONTINUOUS
 10
168.700000
 20
149.400000
  0
VERTEX
  8
FEATURES
 62
     0
  6
CONTINUOUS
 10
167.400000
 20
148.600000
  0
VERTEX
  8
FEATURES
 62
     0
  6
CONTINUOUS
 10
166.200000
 20
147.900000
  0
VERTEX
  8
FEATURES
 62
     0
  6
CONTINUOUS
 10
161.100000
 20
144.200000
  0
VERTEX
  8
FEATURES
 62
     0
  6
CONTINUOUS
 10
160.200000
 20
143.000000
  0
VERTEX
  8
FEATURES
 62
     0
  6
CONTINUOUS
 10
159.500000
 20
141.700000
  0
VERTEX
  8
FEATURES
 62
     0
  6
CONTINUOUS
 10
158.300000
 20
137.500000
  0
VERTEX
  8
FEATURES
 62
     0
  6
CONTINUOUS
 10
157.500000
 20
136.200000
  0
VERTEX
  8
FEATURES
 62
     0
  6
CONTINUOUS
 10
154.200000
 20
131.700000
  0
VERTEX
  8
FEATURES
 62
     0
  6
CONTINUOUS
 10
153.100000
 20
130.800000
  0
VERTEX
  8
FEATURES
 62
     0
  6
CONTINUOUS
 10
150.000000
 20
127.300000
  0
VERTEX
  8
FEATURES
 62
     0
  6
CONTINUOUS
 10
149.200000
 20
126.100000
  0
VERTEX
  8
FEATURES
 62
     0
  6
CONTINUOUS
 10
147.300000
 20
124.000000
  0
VERTEX
  8
FEATURES
 62
     0
  6
CONTINUOUS
 10
146.600000
 20
122.600000
  0
VERTEX
  8
FEATURES
 62
     0
  6
CONTINUOUS
 10
145.900000
 20
121.400000
  0
VERTEX
  8
FEATURES
 62
     0
  6
CONTINUOUS
 10
144.500000
 20
119.500000
  0
VERTEX
  8
FEATURES
 62
     0
  6
CONTINUOUS
 10
143.700000
 20
118.300000
  0
VERTEX
  8
FEATURES
 62
     0
  6
CONTINUOUS
 10
141.100000
 20
114.900000
  0
VERTEX
  8
FEATURES
 62
     0
  6
CONTINUOUS
 10
140.000000
 20
113.900000
  0
VERTEX
  8
FEATURES
 62
     0
  6
CONTINUOUS
 10
138.900000
 20
113.000000
  0
VERTEX
  8
FEATURES
 62
     0
  6
CONTINUOUS
 10
136.900000
 20
111.400000
  0
VERTEX
  8
FEATURES
 62
     0
  6
CONTINUOUS
 10
135.900000
 20
110.400000
  0
VERTEX
  8
FEATURES
 62
     0
  6
CONTINUOUS
 10
133.600000
 20
108.300000
  0
VERTEX
  8
FEATURES
 62
     0
  6
CONTINUOUS
 10
132.600000
 20
107.300000
  0
VERTEX
  8
FEATURES
 62
     0
  6
CONTINUOUS
 10
131.200000
 20
106.100000
  0
VERTEX
  8
FEATURES
 62
     0
  6
CONTINUOUS
 10
130.300000
 20
105.000000
  0
VERTEX
  8
FEATURES
 62
     0
  6
CONTINUOUS
 10
129.000000
 20
103.000000
  0
VERTEX
  8
FEATURES
 62
     0
  6
CONTINUOUS
 10
128.100000
 20
101.800000
  0
VERTEX
  8
FEATURES
 62
     0
  6
CONTINUOUS
 10
127.200000
 20
100.700000
  0
VERTEX
  8
FEATURES
 62
     0
  6
CONTINUOUS
 10
125.200000
 20
97.200000
  0
VERTEX
  8
FEATURES
 62
     0
  6
CONTINUOUS
 10
124.600000
 20
95.800000
  0
VERTEX
  8
FEATURES
 62
     0
  6
CONTINUOUS
 10
124.000000
 20
94.300000
  0
VERTEX
  8
FEATURES
 62
     0
  6
CONTINUOUS
 10
122.400000
 20
91.900000
  0
VERTEX
  8
FEATURES
 62
     0
  6
CONTINUOUS
 10
120.800000
 20
90.100000
  0
VERTEX
  8
FEATURES
 62
     0
  6
CONTINUOUS
 10
119.700000
 20
89.100000
  0
VERTEX
  8
FEATURES
 62
     0
  6
CONTINUOUS
 10
118.700000
 20
88.200000
  0
VERTEX
  8
FEATURES
 62
     0
  6
CONTINUOUS
 10
115.600000
 20
85.400000
  0
VERTEX
  8
FEATURES
 62
     0
  6
CONTINUOUS
 10
114.600000
 20
84.400000
  0
VERTEX
  8
FEATURES
 62
     0
  6
CONTINUOUS
 10
113.500000
 20
83.500000
  0
VERTEX
  8
FEATURES
 62
     0
  6
CONTINUOUS
 10
112.400000
 20
82.600000
  0
VERTEX
  8
FEATURES
 62
     0
  6
CONTINUOUS
 10
108.100000
 20
79.100000
  0
VERTEX
  8
FEATURES
 62
     0
  6
CONTINUOUS
 10
107.000000
 20
78.200000
  0
VERTEX
  8
FEATURES
 62
     0
  6
CONTINUOUS
 10
105.800000
 20
77.300000
  0
VERTEX
  8
FEATURES
 62
     0
  6
CONTINUOUS
 10
101.100000
 20
73.700000
  0
VERTEX
  8
FEATURES
 62
     0
  6
CONTINUOUS
 10
99.900000
 20
72.900000
  0
VERTEX
  8
FEATURES
 62
     0
  6
CONTINUOUS
 10
98.800000
 20
72.000000
  0
VERTEX
  8
FEATURES
 62
     0
  6
CONTINUOUS
 10
97.600000
 20
71.200000
  0
VERTEX
  8
FEATURES
 62
     0
  6
CONTINUOUS
 10
95.000000
 20
68.700000
  0
VERTEX
  8
FEATURES
 62
     0
  6
CONTINUOUS
 10
94.200000
 20
67.300000
  0
VERTEX
  8
FEATURES
 62
     0
  6
CONTINUOUS
 10
93.500000
 20
66.000000
  0
VERTEX
  8
FEATURES
 62
     0
  6
CONTINUOUS
 10
92.800000
 20
64.800000
  0
VERTEX
  8
FEATURES
 62
     0
  6
CONTINUOUS
 10
89.800000
 20
61.500000
  0
VERTEX
  8
FEATURES
 62
     0
  6
CONTINUOUS
 10
88.900000
 20
60.400000
  0
VERTEX
  8
FEATURES
 62
     0
  6
CONTINUOUS
 10
88.100000
 20
59.200000
  0
VERTEX
  8
FEATURES
 62
     0
  6
CONTINUOUS
 10
84.900000
 20
55.800000
  0
VERTEX
  8
FEATURES
 62
     0
  6
CONTINUOUS
 10
84.300000
 20
54.400000
  0
VERTEX
  8
FEATURES
 62
     0
  6
CONTINUOUS
 10
82.100000
 20
49.200000
  0
VERTEX
  8
FEATURES
 62
     0
  6
CONTINUOUS
 10
81.300000
 20
48.000000
  0
VERTEX
  8
FEATURES
 62
     0
  6
CONTINUOUS
 10
80.500000
 20
46.700000
  0
VERTEX
  8
FEATURES
 62
     0
  6
CONTINUOUS
 10
78.400000
 20
43.900000
  0
VERTEX
  8
FEATURES
 62
     0
  6
CONTINUOUS
 10
77.400000
 20
42.800000
  0
VERTEX
  8
FEATURES
 62
     0
  6
CONTINUOUS
 10
76.300000
 20
41.800000
  0
VERTEX
  8
FEATURES
 62
     0
  6
CONTINUOUS
 10
74.100000
 20
39.400000
  0
VERTEX
  8
FEATURES
 62
     0
  6
CONTINUOUS
 10
73.000000
 20
38.400000
  0
VERTEX
  8
FEATURES
 62
     0
  6
CONTINUOUS
 10
72.000000
 20
37.300000
  0
VERTEX
  8
FEATURES
 62
     0
  6
CONTINUOUS
 10
69.300000
 20
34.600000
  0
VERTEX
  8
FEATURES
 62
     0
  6
CONTINUOUS
 10
68.200000
 20
33.700000
  0
VERTEX
  8
FEATURES
 62
     0
  6
CONTINUOUS
 10
67.000000
 20
32.800000
  0
VERTEX
  8
FEATURES
 62
     0
  6
CONTINUOUS
 10
63.200000
 20
31.000000
  0
VERTEX
  8
FEATURES
 62
     0
  6
CONTINUOUS
 10
61.800000
 20
30.400000
  0
VERTEX
  8
FEATURES
 62
     0
  6
CONTINUOUS
 10
60.400000
 20
29.800000
  0
VERTEX
  8
FEATURES
 62
     0
  6
CONTINUOUS
 10
56.700000
 20
27.800000
  0
VERTEX
  8
FEATURES
 62
     0
  6
CONTINUOUS
 10
55.500000
 20
27.100000
  0
VERTEX
  8
FEATURES
 62
     0
  6
CONTINUOUS
 10
51.200000
 20
24.100000
  0
VERTEX
  8
FEATURES
 62
     0
  6
CONTINUOUS
 10
50.000000
 20
23.200000
  0
VERTEX
  8
FEATURES
 62
     0
  6
CONTINUOUS
 10
48.900000
 20
22.300000
  0
VERTEX
  8
FEATURES
 62
     0
  6
CONTINUOUS
 10
44.700000
 20
18.400000
  0
VERTEX
  8
FEATURES
 62
     0
  6
CONTINUOUS
 10
43.800000
 20
17.300000
  0
VERTEX
  8
FEATURES
 62
     0
  6
CONTINUOUS
 10
42.900000
 20
16.100000
  0
VERTEX
  8
FEATURES
 62
     0
  6
CONTINUOUS
 10
41.400000
 20
14.100000
  0
VERTEX
  8
FEATURES
 62
     0
  6
CONTINUOUS
 10
41.000000
 20
12.500000
  0
VERTEX
  8
FEATURES
 62
     0
  6
CONTINUOUS
 10
40.300000
 20
8.500000
  0
VERTEX
  8
FEATURES
 62
     0
  6
CONTINUOUS
 10
39.800000
 20
7.000000
  0
VERTEX
  8
FEATURES
 62
     0
  6
CONTINUOUS
 10
38.100000
 20
2.000000
  0
SEQEND
  8
FEATURES
  0
POLYLINE
  8
FEATURES
 62
     0
  6
CONTINUOUS
 66
     1
 40
0.100000
 41
0.100000
  0
VERTEX
  8
FEATURES
 62
     0
  6
CONTINUOUS
 10
171.100000
 20
152.500000
  0
VERTEX
  8
FEATURES
 62
     0
  6
CONTINUOUS
 10
171.500000
 20
152.500000
  0
VERTEX
  8
FEATURES
 62
     0
  6
CONTINUOUS
 10
171.800000
 20
152.300000
  0
VERTEX
  8
FEATURES
 62
     0
  6
CONTINUOUS
 10
171.900000
 20
152.100000
  0
SEQEND
  8
FEATURES
  0
POLYLINE
  8
FEATURES
 62
     0
  6
CONTINUOUS
 66
     1
 40
0.100000
 41
0.100000
  0
VERTEX
  8
FEATURES
 62
     0
  6
CONTINUOUS
 10
171.900000
 20
151.400000
  0
VERTEX
  8
FEATURES
 62
     0
  6
CONTINUOUS
 10
171.800000
 20
151.200000
  0
VERTEX
  8
FEATURES
 62
     0
  6
CONTINUOUS
 10
171.400000
 20
151.100000
  0
VERTEX
  8
FEATURES
 62
     0
  6
CONTINUOUS
 10
171.000000
 20
151.100000
  0
VERTEX
  8
FEATURES
 62
     0
  6
CONTINUOUS
 10
170.700000
 20
151.300000
  0
VERTEX
  8
FEATURES
 62
     0
  6
CONTINUOUS
 10
170.400000
 20
151.500000
  0
VERTEX
  8
FEATURES
 62
     0
  6
CONTINUOUS
 10
170.000000
 20
151.500000
  0
VERTEX
  8
FEATURES
 62
     0
  6
CONTINUOUS
 10
169.600000
 20
151.300000
  0
VERTEX
  8
FEATURES
 62
     0
  6
CONTINUOUS
 10
169.400000
 20
151.000000
  0
VERTEX
  8
FEATURES
 62
     0
  6
CONTINUOUS
 10
169.400000
 20
150.600000
  0
VERTEX
  8
FEATURES
 62
     0
  6
CONTINUOUS
 10
169.600000
 20
150.300000
  0
VERTEX
  8
FEATURES
 62
     0
  6
CONTINUOUS
 10
169.900000
 20
150.100000
  0
VERTEX
  8
FEATURES
 62
     0
  6
CONTINUOUS
 10
170.300000
 20
150.100000
  0
SEQEND
  8
FEATURES
  0
POLYLINE
  8
FEATURES
 62
     0
  6
CONTINUOUS
 66
     1
 40
0.100000
 41
0.100000
  0
VERTEX
  8
FEATURES
 62
     0
  6
CONTINUOUS
 10
167.400000
 20
149.400000
  0
VERTEX
  8
FEATURES
 62
     0
  6
CONTINUOUS
 10
167.800000
 20
149.300000
  0
VERTEX
  8
FEATURES
 62
     0
  6
CONTINUOUS
 10
168.100000
 20
149.000000
  0
VERTEX
  8
FEATURES
 62
     0
  6
CONTINUOUS
 10
168.200000
 20
148.600000
  0
VERTEX
  8
FEATURES
 62
     0
  6
CONTINUOUS
 10
168.100000
 20
148.200000
  0
VERTEX
  8
FEATURES
 62
     0
  6
CONTINUOUS
 10
167.800000
 20
148.000000
  0
VERTEX
  8
FEATURES
 62
     0
  6
CONTINUOUS
 10
167.400000
 20
147.900000
  0
VERTEX
  8
FEATURES
 62
     0
  6
CONTINUOUS
 10
167.000000
 20
148.000000
  0
VERTEX
  8
FEATURES
 62
     0
  6
CONTINUOUS
 10
166.800000
 20
148.200000
  0
VERTEX
  8
FEATURES
 62
     0
  6
CONTINUOUS
 10
166.500000
 20
148.500000
  0
VERTEX
  8
FEATURES
 62
     0
  6
CONTINUOUS
 10
166.100000
 20
148.600000
  0
VERTEX
  8
FEATURES
 62
     0
  6
CONTINUOUS
 10
165.700000
 20
148.500000
  0
VERTEX
  8
FEATURES
 62
     0
  6
CONTINUOUS
 10
165.500000
 20
148.200000
  0
VERTEX
  8
FEATURES
 62
     0
  6
CONTINUOUS
 10
165.400000
 20
147.800000
  0
VERTEX
  8
FEATURES
 62
     0
  6
CONTINUOUS
 10
165.500000
 20
147.500000
  0
VERTEX
  8
FEATURES
 62
     0
  6
CONTINUOUS
 10
165.800000
 20
147.200000
  0
VERTEX
  8
FEATURES
 62
     0
  6
CONTINUOUS
 10
166.100000
 20
147.100000
  0
SEQEND
  8
FEATURES
  0
POLYLINE
  8
FEATURES
 62
     0
  6
CONTINUOUS
 66
     1
 40
0.100000
 41
0.100000
  0
VERTEX
  8
FEATURES
 62
     0
  6
CONTINUOUS
 10
163.200000
 20
146.500000
  0
VERTEX
  8
FEATURES
 62
     0
  6
CONTINUOUS
 10
163.600000
 20
146.500000
  0
VERTEX
  8
FEATURES
 62
     0
  6
CONTINUOUS
 10
163.900000
 20
146.200000
  0
VERTEX
  8
FEATURES
 62
     0
  6
CONTINUOUS
 10
164.000000
 20
145.900000
  0
VERTEX
  8
FEATURES
 62
     0
  6
CONTINUOUS
 10
164.000000
 20
145.500000
  0
VERTEX
  8
FEATURES
 62
     0
  6
CONTINUOUS
 10
163.700000
 20
145.200000
  0
VERTEX
  8
FEATURES
 62
     0
  6
CONTINUOUS
 10
163.400000
 20
145.000000
  0
VERTEX
  8
FEATURES
 62
     0
  6
CONTINUOUS
 10
163.000000
 20
145.100000
  0
VERTEX
  8
FEATURES
 62
     0
  6
CONTINUOUS
 10
162.700000
 20
145.400000
  0
VERTEX
  8
FEATURES
 62
     0
  6
CONTINUOUS
 10
162.400000
 20
145.600000
  0
VERTEX
  8
FEATURES
 62
     0
  6
CONTINUOUS
 10
162.000000
 20
145.700000
  0
VERTEX
  8
FEATURES
 62
     0
  6
CONTINUOUS
 10
161.600000
 20
145.500000
  0
VERTEX
  8
FEATURES
 62
     0
  6
CONTINUOUS
 10
161.400000
 20
145.200000
  0
VERTEX
  8
FEATURES
 62
     0
  6
CONTINUOUS
 10
161.300000
 20
144.800000
  0
VERTEX
  8
FEATURES
 62
     0
  6
CONTINUOUS
 10
161.500000
 20
144.500000
  0
VERTEX
  8
FEATURES
 62
     0
  6
CONTINUOUS
 10
161.800000
 20
144.200000
  0
VERTEX
  8
FEATURES
 62
     0
  6
CONTINUOUS
 10
162.200000
 20
144.200000
  0
SEQEND
  8
FEATURES
  0
POLYLINE
  8
FEATURES
 62
     0
  6
CONTINUOUS
 66
     1
 40
0.100000
 41
0.100000
  0
VERTEX
  8
FEATURES
 62
     0
  6
CONTINUOUS
 10
159.200000
 20
142.900000
  0
VERTEX
  8
FEATURES
 62
     0
  6
CONTINUOUS
 10
159.600000
 20
143.100000
  0
VERTEX
  8
FEATURES
 62
     0
  6
CONTINUOUS
 10
160.000000
 20
143.100000
  0
VERTEX
  8
FEATURES
 62
     0
  6
CONTINUOUS
 10
160.300000
 20
142.900000
  0
VERTEX
  8
FEATURES
 62
     0
  6
CONTINUOUS
 10
160.500000
 20
142.500000
  0
VERTEX
  8
FEATURES
 62
     0
  6
CONTINUOUS
 10
160.500000
 20
142.100000
  0
VERTEX
  8
FEATURES
 62
     0
  6
CONTINUOUS
 10
160.300000
 20
141.800000
  0
VERTEX
  8
FEATURES
 62
     0
  6
CONTINUOUS
 10
159.900000
 20
141.600000
  0
VERTEX
  8
FEATURES
 62
     0
  6
CONTINUOUS
 10
159.500000
 20
141.600000
  0
VERTEX
  8
FEATURES
 62
     0
  6
CONTINUOUS
 10
159.100000
 20
141.600000
  0
VERTEX
  8
FEATURES
 62
     0
  6
CONTINUOUS
 10
158.800000
 20
141.500000
  0
VERTEX
  8
FEATURES
 62
     0
  6
CONTINUOUS
 10
158.600000
 20
141.100000
  0
VERTEX
  8
FEATURES
 62
     0
  6
CONTINUOUS
 10
158.600000
 20
140.700000
  0
VERTEX
  8
FEATURES
 62
     0
  6
CONTINUOUS
 10
158.800000
 20
140.400000
  0
VERTEX
  8
FEATURES
 62
     0
  6
CONTINUOUS
 10
159.100000
 20
140.200000
  0
VERTEX
  8
FEATURES
 62
     0
  6
CONTINUOUS
 10
159.500000
 20
140.200000
  0
VERTEX
  8
FEATURES
 62
     0
  6
CONTINUOUS
 10
159.800000
 20
140.400000
  0
SEQEND
  8
FEATURES
  0
POLYLINE
  8
FEATURES
 62
     0
  6
CONTINUOUS
 66
     1
 40
0.100000
 41
0.100000
  0
VERTEX
  8
FEATURES
 62
     0
  6
CONTINUOUS
 10
158.000000
 20
138.200000
  0
VERTEX
  8
FEATURES
 62
     0
  6
CONTINUOUS
 10
158.300000
 20
138.300000
  0
VERTEX
  8
FEATURES
 62
     0
  6
CONTINUOUS
 10
158.700000
 20
138.200000
  0
VERTEX
  8
FEATURES
 62
     0
  6
CONTINUOUS
 10
159.000000
 20
137.900000
  0
VERTEX
  8
FEATURES
 62
     0
  6
CONTINUOUS
 10
159.100000
 20
137.500000
  0
VERTEX
  8
FEATURES
 62
     0
  6
CONTINUOUS
 10
159.000000
 20
137.200000
  0
VERTEX
  8
FEATURES
 62
     0
  6
CONTINUOUS
 10
158.700000
 20
136.900000
  0
VERTEX
  8
FEATURES
 62
     0
  6
CONTINUOUS
 10
158.300000
 20
136.800000
  0
VERTEX
  8
FEATURES
 62
     0
  6
CONTINUOUS
 10
157.900000
 20
136.900000
  0
VERTEX
  8
FEATURES
 62
     0
  6
CONTINUOUS
 10
157.600000
 20
137.000000
  0
VERTEX
  8
FEATURES
 62
     0
  6
CONTINUOUS
 10
157.200000
 20
136.900000
  0
VERTEX
  8
FEATURES
 62
     0
  6
CONTINUOUS
 10
156.900000
 20
136.700000
  0
VERTEX
  8
FEATURES
 62
     0
  6
CONTINUOUS
 10
156.800000
 20
136.300000
  0
VERTEX
  8
FEATURES
 62
     0
  6
CONTINUOUS
 10
156.900000
 20
135.900000
  0
VERTEX
  8
FEATURES
 62
     0
  6
CONTINUOUS
 10
157.100000
 20
135.600000
  0
VERTEX
  8
FEATURES
 62
     0
  6
CONTINUOUS
 10
157.500000
 20
135.500000
  0
VERTEX
  8
FEATURES
 62
     0
  6
CONTINUOUS
 10
157.900000
 20
135.600000
  0
SEQEND
  8
FEATURES
  0
POLYLINE
  8
FEATURES
 62
     0
  6
CONTINUOUS
 66
     1
 40
0.100000
 41
0.100000
  0
VERTEX
  8
FEATURES
 62
     0
  6
CONTINUOUS
 10
155.200000
 20
134.100000
  0
VERTEX
  8
FEATURES
 62
     0
  6
CONTINUOUS
 10
155.500000
 20
134.200000
  0
VERTEX
  8
FEATURES
 62
     0
  6
CONTINUOUS
 10
155.900000
 20
134.100000
  0
VERTEX
  8
FEATURES
 62
     0
  6
CONTINUOUS
 10
156.100000
 20
133.800000
  0
VERTEX
  8
FEATURES
 62
     0
  6
CONTINUOUS
 10
156.200000
 20
133.400000
  0
VERTEX
  8
FEATURES
 62
     0
  6
CONTINUOUS
 10
156.100000
 20
133.000000
  0
VERTEX
  8
FEATURES
 62
     0
  6
CONTINUOUS
 10
155.800000
 20
132.800000
  0
VERTEX
  8
FEATURES
 62
     0
  6
CONTINUOUS
 10
155.400000
 20
132.700000
  0
VERTEX
  8
FEATURES
 62
     0
  6
CONTINUOUS
 10
155.000000
 20
132.800000
  0
VERTEX
  8
FEATURES
 62
     0
  6
CONTINUOUS
 10
154.700000
 20
133.000000
  0
VERTEX
  8
FEATURES
 62
     0
  6
CONTINUOUS
 10
154.300000
 20
132.900000
  0
VERTEX
  8
FEATURES
 62
     0
  6
CONTINUOUS
 10
154.000000
 20
132.700000
  0
VERTEX
  8
FEATURES
 62
     0
  6
CONTINUOUS
 10
153.800000
 20
132.300000
  0
VERTEX
  8
FEATURES
 62
     0
  6
CONTINUOUS
 10
153.900000
 20
131.900000
  0
VERTEX
  8
FEATURES
 62
     0
  6
CONTINUOUS
 10
154.100000
 20
131.600000
  0
VERTEX
  8
FEATURES
 62
     0
  6
CONTINUOUS
 10
154.500000
 20
131.500000
  0
VERTEX
  8
FEATURES
 62
     0
  6
CONTINUOUS
 10
154.900000
 20
131.600000
  0
SEQEND
  8
FEATURES
  0
POLYLINE
  8
FEATURES
 62
     0
  6
CONTINUOUS
 66
     1
 40
0.100000
 41
0.100000
  0
VERTEX
  8
FEATURES
 62
     0
  6
CONTINUOUS
 10
151.900000
 20
130.400000
  0
VERTEX
  8
FEATURES
 62
     0
  6
CONTINUOUS
 10
152.300000
 20
130.400000
  0
VERTEX
  8
FEATURES
 62
     0
  6
CONTINUOUS
 10
152.700000
 20
130.300000
  0
VERTEX
  8
FEATURES
 62
     0
  6
CONTINUOUS
 10
152.900000
 20
129.900000
  0
VERTEX
  8
FEATURES
 62
     0
  6
CONTINUOUS
 10
152.900000
 20
129.500000
  0
VERTEX
  8
FEATURES
 62
     0
  6
CONTINUOUS
 10
152.700000
 20
129.200000
  0
VERTEX
  8
FEATURES
 62
     0
  6
CONTINUOUS
 10
152.400000
 20
129.000000
  0
VERTEX
  8
FEATURES
 62
     0
  6
CONTINUOUS
 10
152.000000
 20
129.000000
  0
VERTEX
  8
FEATURES
 62
     0
  6
CONTINUOUS
 10
151.700000
 20
129.100000
  0
VERTEX
  8
FEATURES
 62
     0
  6
CONTINUOUS
 10
151.300000
 20
129.300000
  0
VERTEX
  8
FEATURES
 62
     0
  6
CONTINUOUS
 10
150.900000
 20
129.300000
  0
VERTEX
  8
FEATURES
 62
     0
  6
CONTINUOUS
 10
150.600000
 20
129.100000
  0
VERTEX
  8
FEATURES
 62
     0
  6
CONTINUOUS
 10
150.400000
 20
128.700000
  0
VERTEX
  8
FEATURES
 62
     0
  6
CONTINUOUS
 10
150.500000
 20
128.300000
  0
VERTEX
  8
FEATURES
 62
     0
  6
CONTINUOUS
 10
150.700000
 20
128.000000
  0
VERTEX
  8
FEATURES
 62
     0
  6
CONTINUOUS
 10
151.000000
 20
127.900000
  0
VERTEX
  8
FEATURES
 62
     0
  6
CONTINUOUS
 10
151.400000
 20
127.900000
  0
SEQEND
  8
FEATURES
  0
POLYLINE
  8
FEATURES
 62
     0
  6
CONTINUOUS
 66
     1
 40
0.100000
 41
0.100000
  0
VERTEX
  8
FEATURES
 62
     0
  6
CONTINUOUS
 10
148.700000
 20
126.600000
  0
VERTEX
  8
FEATURES
 62
     0
  6
CONTINUOUS
 10
149.100000
 20
126.600000
  0
VERTEX
  8
FEATURES
 62
     0
  6
CONTINUOUS
 10
149.400000
 20
126.500000
  0
VERTEX
  8
FEATURES
 62
     0
  6
CONTINUOUS
 10
149.700000
 20
126.100000
  0
VERTEX
  8
FEATURES
 62
     0
  6
CONTINUOUS
 10
149.700000
 20
125.700000
  0
VERTEX
  8
FEATURES
 62
     0
  6
CONTINUOUS
 10
149.500000
 20
125.400000
  0
VERTEX
  8
FEATURES
 62
     0
  6
CONTINUOUS
 10
149.200000
 20
125.200000
  0
VERTEX
  8
FEATURES
 62
     0
  6
CONTINUOUS
 10
148.800000
 20
125.200000
  0
VERTEX
  8
FEATURES
 62
     0
  6
CONTINUOUS
 10
148.500000
 20
125.300000
  0
VERTEX
  8
FEATURES
 62
     0
  6
CONTINUOUS
 10
148.100000
 20
125.500000
  0
VERTEX
  8
FEATURES
 62
     0
  6
CONTINUOUS
 10
147.700000
 20
125.500000
  0
VERTEX
  8
FEATURES
 62
     0
  6
CONTINUOUS
 10
147.400000
 20
125.200000
  0
VERTEX
  8
FEATURES
 62
     0
  6
CONTINUOUS
 10
147.200000
 20
124.900000
  0
VERTEX
  8
FEATURES
 62
     0
  6
CONTINUOUS
 10
147.300000
 20
124.500000
  0
VERTEX
  8
FEATURES
 62
     0
  6
CONTINUOUS
 10
147.500000
 20
124.200000
  0
VERTEX
  8
FEATURES
 62
     0
  6
CONTINUOUS
 10
147.800000
 20
124.000000
  0
VERTEX
  8
FEATURES
 62
     0
  6
CONTINUOUS
 10
148.200000
 20
124.000000
  0
SEQEND
  8
FEATURES
  0
POLYLINE
  8
FEATURES
 62
     0
  6
CONTINUOUS
 66
     1
 40
0.100000
 41
0.100000
  0
VERTEX
  8
FEATURES
 62
     0
  6
CONTINUOUS
 10
145.800000
 20
122.500000
  0
VERTEX
  8
FEATURES
 62
     0
  6
CONTINUOUS
 10
146.200000
 20
122.500000
  0
VERTEX
  8
FEATURES
 62
     0
  6
CONTINUOUS
 10
146.600000
 20
122.400000
  0
VERTEX
  8
FEATURES
 62
     0
  6
CONTINUOUS
 10
146.800000
 20
122.100000
  0
VERTEX
  8
FEATURES
 62
     0
  6
CONTINUOUS
 10
146.900000
 20
121.700000
  0
VERTEX
  8
FEATURES
 62
     0
  6
CONTINUOUS
 10
146.800000
 20
121.400000
  0
VERTEX
  8
FEATURES
 62
     0
  6
CONTINUOUS
 10
146.500000
 20
121.100000
  0
VERTEX
  8
FEATURES
 62
     0
  6
CONTINUOUS
 10
146.100000
 20
121.000000
  0
VERTEX
  8
FEATURES
 62
     0
  6
CONTINUOUS
 10
145.700000
 20
121.200000
  0
VERTEX
  8
FEATURES
 62
     0
  6
CONTINUOUS
 10
145.300000
 20
121.300000
  0
VERTEX
  8
FEATURES
 62
     0
  6
CONTINUOUS
 10
145.000000
 20
121.200000
  0
VERTEX
  8
FEATURES
 62
     0
  6
CONTINUOUS
 10
144.700000
 20
121.000000
  0
VERTEX
  8
FEATURES
 62
     0
  6
CONTINUOUS
 10
144.500000
 20
120.600000
  0
VERTEX
  8
FEATURES
 62
     0
  6
CONTINUOUS
 10
144.600000
 20
120.200000
  0
VERTEX
  8
FEATURES
 62
     0
  6
CONTINUOUS
 10
144.800000
 20
120.000000
  0
VERTEX
  8
FEATURES
 62
     0
  6
CONTINUOUS
 10
145.200000
 20
119.800000
  0
VERTEX
  8
FEATURES
 62
     0
  6
CONTINUOUS
 10
145.600000
 20
119.900000
  0
SEQEND
  8
FEATURES
  0
POLYLINE
  8
FEATURES
 62
     0
  6
CONTINUOUS
 66
     1
 40
0.100000
 41
0.100000
  0
VERTEX
  8
FEATURES
 62
     0
  6
CONTINUOUS
 10
142.900000
 20
118.400000
  0
VERTEX
  8
FEATURES
 62
     0
  6
CONTINUOUS
 10
143.300000
 20
118.500000
  0
VERTEX
  8
FEATURES
 62
     0
  6
CONTINUOUS
 10
143.700000
 20
118.300000
  0
VERTEX
  8
FEATURES
 62
     0
  6
CONTINUOUS
 10
143.900000
 20
118.000000
  0
VERTEX
  8
FEATURES
 62
     0
  6
CONTINUOUS
 10
144.000000
 20
117.600000
  0
VERTEX
  8
FEATURES
 62
     0
  6
CONTINUOUS
 10
143.800000
 20
117.300000
  0
VERTEX
  8
FEATURES
 62
     0
  6
CONTINUOUS
 10
143.500000
 20
117.000000
  0
VERTEX
  8
FEATURES
 62
     0
  6
CONTINUOUS
 10
143.100000
 20
117.000000
  0
VERTEX
  8
FEATURES
 62
     0
  6
CONTINUOUS
 10
142.800000
 20
117.100000
  0
VERTEX
  8
FEATURES
 62
     0
  6
CONTINUOUS
 10
142.400000
 20
117.300000
  0
VERTEX
  8
FEATURES
 62
     0
  6
CONTINUOUS
 10
142.000000
 20
117.200000
  0
VERTEX
  8
FEATURES
 62
     0
  6
CONTINUOUS
 10
141.700000
 20
117.000000
  0
VERTEX
  8
FEATURES
 62
     0
  6
CONTINUOUS
 10
141.600000
 20
116.600000
  0
VERTEX
  8
FEATURES
 62
     0
  6
CONTINUOUS
 10
141.600000
 20
116.200000
  0
VERTEX
  8
FEATURES
 62
     0
  6
CONTINUOUS
 10
141.900000
 20
115.900000
  0
VERTEX
  8
FEATURES
 62
     0
  6
CONTINUOUS
 10
142.200000
 20
115.800000
  0
VERTEX
  8
FEATURES
 62
     0
  6
CONTINUOUS
 10
142.600000
 20
115.800000
  0
SEQEND
  8
FEATURES
  0
POLYLINE
  8
FEATURES
 62
     0
  6
CONTINUOUS
 66
     1
 40
0.100000
 41
0.100000
  0
VERTEX
  8
FEATURES
 62
     0
  6
CONTINUOUS
 10
139.800000
 20
114.700000
  0
VERTEX
  8
FEATURES
 62
     0
  6
CONTINUOUS
 10
140.200000
 20
114.700000
  0
VERTEX
  8
FEATURES
 62
     0
  6
CONTINUOUS
 10
140.600000
 20
114.400000
  0
VERTEX
  8
FEATURES
 62
     0
  6
CONTINUOUS
 10
140.700000
 20
114.100000
  0
VERTEX
  8
FEATURES
 62
     0
  6
CONTINUOUS
 10
140.700000
 20
113.700000
  0
VERTEX
  8
FEATURES
 62
     0
  6
CONTINUOUS
 10
140.500000
 20
113.400000
  0
VERTEX
  8
FEATURES
 62
     0
  6
CONTINUOUS
 10
140.100000
 20
113.200000
  0
VERTEX
  8
FEATURES
 62
     0
  6
CONTINUOUS
 10
139.700000
 20
113.300000
  0
VERTEX
  8
FEATURES
 62
     0
  6
CONTINUOUS
 10
139.400000
 20
113.500000
  0
VERTEX
  8
FEATURES
 62
     0
  6
CONTINUOUS
 10
139.100000
 20
113.700000
  0
VERTEX
  8
FEATURES
 62
     0
  6
CONTINUOUS
 10
138.700000
 20
113.700000
  0
VERTEX
  8
FEATURES
 62
     0
  6
CONTINUOUS
 10
138.300000
 20
113.600000
  0
VERTEX
  8
FEATURES
 62
     0
  6
CONTINUOUS
 10
138.100000
 20
113.300000
  0
VERTEX
  8
FEATURES
 62
     0
  6
CONTINUOUS
 10
138.100000
 20
112.900000
  0
VERTEX
  8
FEATURES
 62
     0
  6
CONTINUOUS
 10
138.200000
 20
112.500000
  0
VERTEX
  8
FEATURES
 62
     0
  6
CONTINUOUS
 10
138.600000
 20
112.300000
  0
VERTEX
  8
FEATURES
 62
     0
  6
CONTINUOUS
 10
139.000000
 20
112.300000
  0
SEQEND
  8
FEATURES
  0
POLYLINE
  8
FEATURES
 62
     0
  6
CONTINUOUS
 66
     1
 40
0.100000
 41
0.100000
  0
VERTEX
  8
FEATURES
 62
     0
  6
CONTINUOUS
 10
136.000000
 20
111.400000
  0
VERTEX
  8
FEATURES
 62
     0
  6
CONTINUOUS
 10
136.400000
 20
111.400000
  0
VERTEX
  8
FEATURES
 62
     0
  6
CONTINUOUS
 10
136.700000
 20
111.200000
  0
VERTEX
  8
FEATURES
 62
     0
  6
CONTINUOUS
 10
136.900000
 20
110.900000
  0
VERTEX
  8
FEATURES
 62
     0
  6
CONTINUOUS
 10
136.900000
 20
110.500000
  0
VERTEX
  8
FEATURES
 62
     0
  6
CONTINUOUS
 10
136.700000
 20
110.200000
  0
VERTEX
  8
FEATURES
 62
     0
  6
CONTINUOUS
 10
136.400000
 20
110.000000
  0
VERTEX
  8
FEATURES
 62
     0
  6
CONTINUOUS
 10
136.000000
 20
110.000000
  0
VERTEX
  8
FEATURES
 62
     0
  6
CONTINUOUS
 10
135.600000
 20
110.200000
  0
VERTEX
  8
FEATURES
 62
     0
  6
CONTINUOUS
 10
135.300000
 20
110.400000
  0
VERTEX
  8
FEATURES
 62
     0
  6
CONTINUOUS
 10
134.900000
 20
110.400000
  0
VERTEX
  8
FEATURES
 62
     0
  6
CONTINUOUS
 10
134.600000
 20
110.200000
  0
VERTEX
  8
FEATURES
 62
     0
  6
CONTINUOUS
 10
134.400000
 20
109.900000
  0
VERTEX
  8
FEATURES
 62
     0
  6
CONTINUOUS
 10
134.400000
 20
109.500000
  0
VERTEX
  8
FEATURES
 62
     0
  6
CONTINUOUS
 10
134.500000
 20
109.200000
  0
VERTEX
  8
FEATURES
 62
     0
  6
CONTINUOUS
 10
134.900000
 20
109.000000
  0
VERTEX
  8
FEATURES
 62
     0
  6
CONTINUOUS
 10
135.300000
 20
109.000000
  0
SEQEND
  8
FEATURES
  0
POLYLINE
  8
FEATURES
 62
     0
  6
CONTINUOUS
 66
     1
 40
0.100000
 41
0.100000
  0
VERTEX
  8
FEATURES
 62
     0
  6
CONTINUOUS
 10
132.400000
 20
108.000000
  0
VERTEX
  8
FEATURES
 62
     0
  6
CONTINUOUS
 10
132.800000
 20
108.000000
  0
VERTEX
  8
FEATURES
 62
     0
  6
CONTINUOUS
 10
133.100000
 20
107.700000
  0
VERTEX
  8
FEATURES
 62
     0
  6
CONTINUOUS
 10
133.300000
 20
107.400000
  0
VERTEX
  8
FEATURES
 62
     0
  6
CONTINUOUS
 10
133.300000
 20
107.000000
  0
VERTEX
  8
FEATURES
 62
     0
  6
CONTINUOUS
 10
133.100000
 20
106.700000
  0
VERTEX
  8
FEATURES
 62
     0
  6
CONTINUOUS
 10
132.700000
 20
106.500000
  0
VERTEX
  8
FEATURES
 62
     0
  6
CONTINUOUS
 10
132.300000
 20
106.600000
  0
VERTEX
  8
FEATURES
 62
     0
  6
CONTINUOUS
 10
132.000000
 20
106.800000
  0
VERTEX
  8
FEATURES
 62
     0
  6
CONTINUOUS
 10
131.700000
 20
107.000000
  0
VERTEX
  8
FEATURES
 62
     0
  6
CONTINUOUS
 10
131.300000
 20
107.000000
  0
VERTEX
  8
FEATURES
 62
     0
  6
CONTINUOUS
 10
130.900000
 20
106.800000
  0
VERTEX
  8
FEATURES
 62
     0
  6
CONTINUOUS
 10
130.700000
 20
106.500000
  0
VERTEX
  8
FEATURES
 62
     0
  6
CONTINUOUS
 10
130.700000
 20
106.100000
  0
VERTEX
  8
FEATURES
 62
     0
  6
CONTINUOUS
 10
130.900000
 20
105.800000
  0
VERTEX
  8
FEATURES
 62
     0
  6
CONTINUOUS
 10
131.200000
 20
105.600000
  0
VERTEX
  8
FEATURES
 62
     0
  6
CONTINUOUS
 10
131.600000
 20
105.500000
  0
SEQEND
  8
FEATURES
  0
POLYLINE
  8
FEATURES
 62
     0
  6
CONTINUOUS
 66
     1
 40
0.100000
 41
0.100000
  0
VERTEX
  8
FEATURES
 62
     0
  6
CONTINUOUS
 10
129.000000
 20
104.200000
  0
VERTEX
  8
FEATURES
 62
     0
  6
CONTINUOUS
 10
129.400000
 20
104.200000
  0
VERTEX
  8
FEATURES
 62
     0
  6
CONTINUOUS
 10
129.800000
 20
104.100000
  0
VERTEX
  8
FEATURES
 62
     0
  6
CONTINUOUS
 10
130.000000
 20
103.800000
  0
VERTEX
  8
FEATURES
 62
     0
  6
CONTINUOUS
 10
130.100000
 20
103.400000
  0
VERTEX
  8
FEATURES
 62
     0
  6
CONTINUOUS
 10
129.900000
 20
103.000000
  0
VERTEX
  8
FEATURES
 62
     0
  6
CONTINUOUS
 10
129.600000
 20
102.800000
  0
VERTEX
  8
FEATURES
 62
     0
  6
CONTINUOUS
 10
129.300000
 20
102.700000
  0
VERTEX
  8
FEATURES
 62
     0
  6
CONTINUOUS
 10
128.900000
 20
102.900000
  0
VERTEX
  8
FEATURES
 62
     0
  6
CONTINUOUS
 10
128.500000
 20
103.000000
  0
VERTEX
  8
FEATURES
 62
     0
  6
CONTINUOUS
 10
128.200000
 20
103.000000
  0
VERTEX
  8
FEATURES
 62
     0
  6
CONTINUOUS
 10
127.800000
 20
102.700000
  0
VERTEX
  8
FEATURES
 62
     0
  6
CONTINUOUS
 10
127.700000
 20
102.400000
  0
VERTEX
  8
FEATURES
 62
     0
  6
CONTINUOUS
 10
127.800000
 20
102.000000
  0
VERTEX
  8
FEATURES
 62
     0
  6
CONTINUOUS
 10
128.000000
 20
101.700000
  0
VERTEX
  8
FEATURES
 62
     0
  6
CONTINUOUS
 10
128.400000
 20
101.500000
  0
VERTEX
  8
FEATURES
 62
     0
  6
CONTINUOUS
 10
128.800000
 20
101.600000
  0
SEQEND
  8
FEATURES
  0
POLYLINE
  8
FEATURES
 62
     0
  6
CONTINUOUS
 66
     1
 40
0.100000
 41
0.100000
  0
VERTEX
  8
FEATURES
 62
     0
  6
CONTINUOUS
 10
126.100000
 20
100.100000
  0
VERTEX
  8
FEATURES
 62
     0
  6
CONTINUOUS
 10
126.400000
 20
100.200000
  0
VERTEX
  8
FEATURES
 62
     0
  6
CONTINUOUS
 10
126.800000
 20
100.100000
  0
VERTEX
  8
FEATURES
 62
     0
  6
CONTINUOUS
 10
127.100000
 20
99.800000
  0
VERTEX
  8
FEATURES
 62
     0
  6
CONTINUOUS
 10
127.200000
 20
99.400000
  0
VERTEX
  8
FEATURES
 62
     0
  6
CONTINUOUS
 10
127.100000
 20
99.100000
  0
VERTEX
  8
FEATURES
 62
     0
  6
CONTINUOUS
 10
126.800000
 20
98.800000
  0
VERTEX
  8
FEATURES
 62
     0
  6
CONTINUOUS
 10
126.400000
 20
98.700000
  0
VERTEX
  8
FEATURES
 62
     0
  6
CONTINUOUS
 10
126.100000
 20
98.800000
  0
VERTEX
  8
FEATURES
 62
     0
  6
CONTINUOUS
 10
125.700000
 20
98.900000
  0
VERTEX
  8
FEATURES
 62
     0
  6
CONTINUOUS
 10
125.300000
 20
98.800000
  0
VERTEX
  8
FEATURES
 62
     0
  6
CONTINUOUS
 10
125.000000
 20
98.500000
  0
VERTEX
  8
FEATURES
 62
     0
  6
CONTINUOUS
 10
125.000000
 20
98.100000
  0
VERTEX
  8
FEATURES
 62
     0
  6
CONTINUOUS
 10
125.100000
 20
97.700000
  0
VERTEX
  8
FEATURES
 62
     0
  6
CONTINUOUS
 10
125.300000
 20
97.500000
  0
VERTEX
  8
FEATURES
 62
     0
  6
CONTINUOUS
 10
125.700000
 20
97.400000
  0
VERTEX
  8
FEATURES
 62
     0
  6
CONTINUOUS
 10
126.100000
 20
97.500000
  0
SEQEND
  8
FEATURES
  0
POLYLINE
  8
FEATURES
 62
     0
  6
CONTINUOUS
 66
     1
 40
0.100000
 41
0.100000
  0
VERTEX
  8
FEATURES
 62
     0
  6
CONTINUOUS
 10
124.000000
 20
95.600000
  0
VERTEX
  8
FEATURES
 62
     0
  6
CONTINUOUS
 10
124.400000
 20
95.700000
  0
VERTEX
  8
FEATURES
 62
     0
  6
CONTINUOUS
 10
124.700000
 20
95.500000
  0
VERTEX
  8
FEATURES
 62
     0
  6
CONTINUOUS
 10
125.000000
 20
95.300000
  0
VERTEX
  8
FEATURES
 62
     0
  6
CONTINUOUS
 10
125.100000
 20
94.900000
  0
VERTEX
  8
FEATURES
 62
     0
  6
CONTINUOUS
 10
125.000000
 20
94.500000
  0
VERTEX
  8
FEATURES
 62
     0
  6
CONTINUOUS
 10
124.700000
 20
94.200000
  0
VERTEX
  8
FEATURES
 62
     0
  6
CONTINUOUS
 10
124.300000
 20
94.200000
  0
VERTEX
  8
FEATURES
 62
     0
  6
CONTINUOUS
 10
123.900000
 20
94.300000
  0
VERTEX
  8
FEATURES
 62
     0
  6
CONTINUOUS
 10
123.600000
 20
94.400000
  0
VERTEX
  8
FEATURES
 62
     0
  6
CONTINUOUS
 10
123.200000
 20
94.300000
  0
VERTEX
  8
FEATURES
 62
     0
  6
CONTINUOUS
 10
122.900000
 20
94.100000
  0
VERTEX
  8
FEATURES
 62
     0
  6
CONTINUOUS
 10
122.800000
 20
93.700000
  0
VERTEX
  8
FEATURES
 62
     0
  6
CONTINUOUS
 10
122.800000
 20
93.300000
  0
VERTEX
  8
FEATURES
 62
     0
  6
CONTINUOUS
 10
123.100000
 20
93.000000
  0
VERTEX
  8
FEATURES
 62
     0
  6
CONTINUOUS
 10
123.500000
 20
92.900000
  0
VERTEX
  8
FEATURES
 62
     0
  6
CONTINUOUS
 10
123.900000
 20
93.000000
  0
SEQEND
  8
FEATURES
  0
POLYLINE
  8
FEATURES
 62
     0
  6
CONTINUOUS
 66
     1
 40
0.100000
 41
0.100000
  0
VERTEX
  8
FEATURES
 62
     0
  6
CONTINUOUS
 10
121.200000
 20
91.600000
  0
VERTEX
  8
FEATURES
 62
     0
  6
CONTINUOUS
 10
121.600000
 20
91.600000
  0
VERTEX
  8
FEATURES
 62
     0
  6
CONTINUOUS
 10
121.900000
 20
91.400000
  0
VERTEX
  8
FEATURES
 62
     0
  6
CONTINUOUS
 10
122.100000
 20
91.100000
  0
VERTEX
  8
FEATURES
 62
     0
  6
CONTINUOUS
 10
122.200000
 20
90.700000
  0
VERTEX
  8
FEATURES
 62
     0
  6
CONTINUOUS
 10
122.000000
 20
90.300000
  0
VERTEX
  8
FEATURES
 62
     0
  6
CONTINUOUS
 10
121.600000
 20
90.100000
  0
VERTEX
  8
FEATURES
 62
     0
  6
CONTINUOUS
 10
121.300000
 20
90.100000
  0
VERTEX
  8
FEATURES
 62
     0
  6
CONTINUOUS
 10
120.900000
 20
90.300000
  0
VERTEX
  8
FEATURES
 62
     0
  6
CONTINUOUS
 10
120.600000
 20
90.500000
  0
VERTEX
  8
FEATURES
 62
     0
  6
CONTINUOUS
 10
120.200000
 20
90.500000
  0
VERTEX
  8
FEATURES
 62
     0
  6
CONTINUOUS
 10
119.900000
 20
90.300000
  0
VERTEX
  8
FEATURES
 62
     0
  6
CONTINUOUS
 10
119.700000
 20
89.900000
  0
VERTEX
  8
FEATURES
 62
     0
  6
CONTINUOUS
 10
119.700000
 20
89.500000
  0
VERTEX
  8
FEATURES
 62
     0
  6
CONTINUOUS
 10
119.900000
 20
89.200000
  0
VERTEX
  8
FEATURES
 62
     0
  6
CONTINUOUS
 10
120.200000
 20
89.000000
  0
VERTEX
  8
FEATURES
 62
     0
  6
CONTINUOUS
 10
120.600000
 20
89.000000
  0
SEQEND
  8
FEATURES
  0
POLYLINE
  8
FEATURES
 62
     0
  6
CONTINUOUS
 66
     1
 40
0.100000
 41
0.100000
  0
VERTEX
  8
FEATURES
 62
     0
  6
CONTINUOUS
 10
117.600000
 20
88.100000
  0
VERTEX
  8
FEATURES
 62
     0
  6
CONTINUOUS
 10
118.000000
 20
88.100000
  0
VERTEX
  8
FEATURES
 62
     0
  6
CONTINUOUS
 10
118.300000
 20
87.900000
  0
VERTEX
  8
FEATURES
 62
     0
  6
CONTINUOUS
 10
118.500000
 20
87.600000
  0
VERTEX
  8
FEATURES
 62
     0
  6
CONTINUOUS
 10
118.500000
 20
87.200000
  0
VERTEX
  8
FEATURES
 62
     0
  6
CONTINUOUS
 10
118.300000
 20
86.900000
  0
VERTEX
  8
FEATURES
 62
     0
  6
CONTINUOUS
 10
118.000000
 20
86.700000
  0
VERTEX
  8
FEATURES
 62
     0
  6
CONTINUOUS
 10
117.600000
 20
86.700000
  0
VERTEX
  8
FEATURES
 62
     0
  6
CONTINUOUS
 10
117.200000
 20
86.900000
  0
VERTEX
  8
FEATURES
 62
     0
  6
CONTINUOUS
 10
116.900000
 20
87.100000
  0
VERTEX
  8
FEATURES
 62
     0
  6
CONTINUOUS
 10
116.500000
 20
87.100000
  0
VERTEX
  8
FEATURES
 62
     0
  6
CONTINUOUS
 10
116.200000
 20
87.000000
  0
VERTEX
  8
FEATURES
 62
     0
  6
CONTINUOUS
 10
116.000000
 20
86.600000
  0
VERTEX
  8
FEATURES
 62
     0
  6
CONTINUOUS
 10
116.000000
 20
86.200000
  0
VERTEX
  8
FEATURES
 62
     0
  6
CONTINUOUS
 10
116.100000
 20
85.900000
  0
VERTEX
  8
FEATURES
 62
     0
  6
CONTINUOUS
 10
116.500000
 20
85.700000
  0
VERTEX
  8
FEATURES
 62
     0
  6
CONTINUOUS
 10
116.900000
 20
85.700000
  0
SEQEND
  8
FEATURES
  0
POLYLINE
  8
FEATURES
 62
     0
  6
CONTINUOUS
 66
     1
 40
0.100000
 41
0.100000
  0
VERTEX
  8
FEATURES
 62
     0
  6
CONTINUOUS
 10
114.000000
 20
84.800000
  0
VERTEX
  8
FEATURES
 62
     0
  6
CONTINUOUS
 10
114.400000
 20
84.700000
  0
VERTEX
  8
FEATURES
 62
     0
  6
CONTINUOUS
 10
114.700000
 20
84.500000
  0
VERTEX
  8
FEATURES
 62
     0
  6
CONTINUOUS
 10
114.900000
 20
84.100000
  0
VERTEX
  8
FEATURES
 62
     0
  6
CONTINUOUS
 10
114.800000
 20
83.800000
  0
VERTEX
  8
FEATURES
 62
     0
  6
CONTINUOUS
 10
114.600000
 20
83.400000
  0
VERTEX
  8
FEATURES
 62
     0
  6
CONTINUOUS
 10
114.300000
 20
83.300000
  0
VERTEX
  8
FEATURES
 62
     0
  6
CONTINUOUS
 10
113.900000
 20
83.300000
  0
VERTEX
  8
FEATURES
 62
     0
  6
CONTINUOUS
 10
113.600000
 20
83.500000
  0
VERTEX
  8
FEATURES
 62
     0
  6
CONTINUOUS
 10
113.200000
 20
83.800000
  0
VERTEX
  8
FEATURES
 62
     0
  6
CONTINUOUS
 10
112.900000
 20
83.800000
  0
VERTEX
  8
FEATURES
 62
     0
  6
CONTINUOUS
 10
112.500000
 20
83.600000
  0
VERTEX
  8
FEATURES
 62
     0
  6
CONTINUOUS
 10
112.300000
 20
83.300000
  0
VERTEX
  8
FEATURES
 62
     0
  6
CONTINUOUS
 10
112.200000
 20
82.900000
  0
VERTEX
  8
FEATURES
 62
     0
  6
CONTINUOUS
 10
112.400000
 20
82.600000
  0
VERTEX
  8
FEATURES
 62
     0
  6
CONTINUOUS
 10
112.700000
 20
82.400000
  0
VERTEX
  8
FEATURES
 62
     0
  6
CONTINUOUS
 10
113.100000
 20
82.300000
  0
SEQEND
  8
FEATURES
  0
POLYLINE
  8
FEATURES
 62
     0
  6
CONTINUOUS
 66
     1
 40
0.100000
 41
0.100000
  0
VERTEX
  8
FEATURES
 62
     0
  6
CONTINUOUS
 10
110.100000
 20
81.600000
  0
VERTEX
  8
FEATURES
 62
     0
  6
CONTINUOUS
 10
110.500000
 20
81.600000
  0
VERTEX
  8
FEATURES
 62
     0
  6
CONTINUOUS
 10
110.800000
 20
81.300000
  0
VERTEX
  8
FEATURES
 62
     0
  6
CONTINUOUS
 10
111.000000
 20
81.000000
  0
VERTEX
  8
FEATURES
 62
     0
  6
CONTINUOUS
 10
110.900000
 20
80.600000
  0
VERTEX
  8
FEATURES
 62
     0
  6
CONTINUOUS
 10
110.700000
 20
80.300000
  0
VERTEX
  8
FEATURES
 62
     0
  6
CONTINUOUS
 10
110.400000
 20
80.100000
  0
VERTEX
  8
FEATURES
 62
     0
  6
CONTINUOUS
 10
110.000000
 20
80.200000
  0
VERTEX
  8
FEATURES
 62
     0
  6
CONTINUOUS
 10
109.700000
 20
80.400000
  0
VERTEX
  8
FEATURES
 62
     0
  6
CONTINUOUS
 10
109.400000
 20
80.600000
  0
VERTEX
  8
FEATURES
 62
     0
  6
CONTINUOUS
 10
109.000000
 20
80.700000
  0
VERTEX
  8
FEATURES
 62
     0
  6
CONTINUOUS
 10
108.600000
 20
80.500000
  0
VERTEX
  8
FEATURES
 62
     0
  6
CONTINUOUS
 10
108.400000
 20
80.200000
  0
VERTEX
  8
FEATURES
 62
     0
  6
CONTINUOUS
 10
108.300000
 20
79.800000
  0
VERTEX
  8
FEATURES
 62
     0
  6
CONTINUOUS
 10
108.500000
 20
79.500000
  0
VERTEX
  8
FEATURES
 62
     0
  6
CONTINUOUS
 10
108.800000
 20
79.200000
  0
VERTEX
  8
FEATURES
 62
     0
  6
CONTINUOUS
 10
109.200000
 20
79.200000
  0
SEQEND
  8
FEATURES
  0
POLYLINE
  8
FEATURES
 62
     0
  6
CONTINUOUS
 66
     1
 40
0.100000
 41
0.100000
  0
VERTEX
  8
FEATURES
 62
     0
  6
CONTINUOUS
 10
106.200000
 20
78.500000
  0
VERTEX
  8
FEATURES
 62
     0
  6
CONTINUOUS
 10
106.600000
 20
78.400000
  0
VERTEX
  8
FEATURES
 62
     0
  6
CONTINUOUS
 10
106.900000
 20
78.200000
  0
VERTEX
  8
FEATURES
 62
     0
  6
CONTINUOUS
 10
107.100000
 20
77.800000
  0
VERTEX
  8
FEATURES
 62
     0
  6
CONTINUOUS
 10
107.000000
 20
77.500000
  0
VERTEX
  8
FEATURES
 62
     0
  6
CONTINUOUS
 10
106.800000
 20
77.200000
  0
VERTEX
  8
FEATURES
 62
     0
  6
CONTINUOUS
 10
106.400000
 20
77.000000
  0
VERTEX
  8
FEATURES
 62
     0
  6
CONTINUOUS
 10
106.100000
 20
77.100000
  0
VERTEX
  8
FEATURES
 62
     0
  6
CONTINUOUS
 10
105.800000
 20
77.300000
  0
VERTEX
  8
FEATURES
 62
     0
  6
CONTINUOUS
 10
105.400000
 20
77.500000
  0
VERTEX
  8
FEATURES
 62
     0
  6
CONTINUOUS
 10
105.100000
 20
77.600000
  0
VERTEX
  8
FEATURES
 62
     0
  6
CONTINUOUS
 10
104.700000
 20
77.400000
  0
VERTEX
  8
FEATURES
 62
     0
  6
CONTINUOUS
 10
104.500000
 20
77.100000
  0
VERTEX
  8
FEATURES
 62
     0
  6
CONTINUOUS
 10
104.400000
 20
76.700000
  0
VERTEX
  8
FEATURES
 62
     0
  6
CONTINUOUS
 10
104.600000
 20
76.400000
  0
VERTEX
  8
FEATURES
 62
     0
  6
CONTINUOUS
 10
104.900000
 20
76.100000
  0
VERTEX
  8
FEATURES
 62
     0
  6
CONTINUOUS
 10
105.300000
 20
76.100000
  0
SEQEND
  8
FEATURES
  0
POLYLINE
  8
FEATURES
 62
     0
  6
CONTINUOUS
 66
     1
 40
0.100000
 41
0.100000
  0
VERTEX
  8
FEATURES
 62
     0
  6
CONTINUOUS
 10
102.300000
 20
75.400000
  0
VERTEX
  8
FEATURES
 62
     0
  6
CONTINUOUS
 10
102.700000
 20
75.400000
  0
VERTEX
  8
FEATURES
 62
     0
  6
CONTINUOUS
 10
103.000000
 20
75.100000
  0
VERTEX
  8
FEATURES
 62
     0
  6
CONTINUOUS
 10
103.100000
 20
74.800000
  0
VERTEX
  8
FEATURES
 62
     0
  6
CONTINUOUS
 10
103.100000
 20
74.400000
  0
VERTEX
  8
FEATURES
 62
     0
  6
CONTINUOUS
 10
102.800000
 20
74.100000
  0
VERTEX
  8
FEATURES
 62
     0
  6
CONTINUOUS
 10
102.500000
 20
73.900000
  0
VERTEX
  8
FEATURES
 62
     0
  6
CONTINUOUS
 10
102.100000
 20
74.000000
  0
VERTEX
  8
FEATURES
 62
     0
  6
CONTINUOUS
 10
101.800000
 20
74.200000
  0
VERTEX
  8
FEATURES
 62
     0
  6
CONTINUOUS
 10
101.500000
 20
74.500000
  0
VERTEX
  8
FEATURES
 62
     0
  6
CONTINUOUS
 10
101.100000
 20
74.500000
  0
VERTEX
  8
FEATURES
 62
     0
  6
CONTINUOUS
 10
100.700000
 20
74.400000
  0
VERTEX
  8
FEATURES
 62
     0
  6
CONTINUOUS
 10
100.500000
 20
74.100000
  0
VERTEX
  8
FEATURES
 62
     0
  6
CONTINUOUS
 10
100.500000
 20
73.700000
  0
VERTEX
  8
FEATURES
 62
     0
  6
CONTINUOUS
 10
100.600000
 20
73.300000
  0
VERTEX
  8
FEATURES
 62
     0
  6
CONTINUOUS
 10
100.900000
 20
73.100000
  0
VERTEX
  8
FEATURES
 62
     0
  6
CONTINUOUS
 10
101.300000
 20
73.000000
  0
SEQEND
  8
FEATURES
  0
POLYLINE
  8
FEATURES
 62
     0
  6
CONTINUOUS
 66
     1
 40
0.100000
 41
0.100000
  0
VERTEX
  8
FEATURES
 62
     0
  6
CONTINUOUS
 10
98.300000
 20
72.500000
  0
VERTEX
  8
FEATURES
 62
     0
  6
CONTINUOUS
 10
98.700000
 20
72.400000
  0
VERTEX
  8
FEATURES
 62
     0
  6
CONTINUOUS
 10
99.000000
 20
72.100000
  0
VERTEX
  8
FEATURES
 62
     0
  6
CONTINUOUS
 10
99.100000
 20
71.800000
  0
VERTEX
  8
FEATURES
 62
     0
  6
CONTINUOUS
 10
99.100000
 20
71.400000
  0
VERTEX
  8
FEATURES
 62
     0
  6
CONTINUOUS
 10
98.800000
 20
71.100000
  0
VERTEX
  8
FEATURES
 62
     0
  6
CONTINUOUS
 10
98.400000
 20
71.000000
  0
VERTEX
  8
FEATURES
 62
     0
  6
CONTINUOUS
 10
98.100000
 20
71.000000
  0
VERTEX
  8
FEATURES
 62
     0
  6
CONTINUOUS
 10
97.800000
 20
71.300000
  0
VERTEX
  8
FEATURES
 62
     0
  6
CONTINUOUS
 10
97.500000
 20
71.500000
  0
VERTEX
  8
FEATURES
 62
     0
  6
CONTINUOUS
 10
97.100000
 20
71.600000
  0
VERTEX
  8
FEATURES
 62
     0
  6
CONTINUOUS
 10
96.700000
 20
71.500000
  0
VERTEX
  8
FEATURES
 62
     0
  6
CONTINUOUS
 10
96.500000
 20
71.200000
  0
VERTEX
  8
FEATURES
 62
     0
  6
CONTINUOUS
 10
96.400000
 20
70.800000
  0
VERTEX
  8
FEATURES
 62
     0
  6
CONTINUOUS
 10
96.500000
 20
70.400000
  0
VERTEX
  8
FEATURES
 62
     0
  6
CONTINUOUS
 10
96.800000
 20
70.200000
  0
VERTEX
  8
FEATURES
 62
     0
  6
CONTINUOUS
 10
97.200000
 20
70.100000
  0
SEQEND
  8
FEATURES
  0
POLYLINE
  8
FEATURES
 62
     0
  6
CONTINUOUS
 66
     1
 40
0.100000
 41
0.100000
  0
VERTEX
  8
FEATURES
 62
     0
  6
CONTINUOUS
 10
94.400000
 20
68.900000
  0
VERTEX
  8
FEATURES
 62
     0
  6
CONTINUOUS
 10
94.800000
 20
69.000000
  0
VERTEX
  8
FEATURES
 62
     0
  6
CONTINUOUS
 10
95.100000
 20
68.900000
  0
VERTEX
  8
FEATURES
 62
     0
  6
CONTINUOUS
 10
95.400000
 20
68.700000
  0
VERTEX
  8
FEATURES
 62
     0
  6
CONTINUOUS
 10
95.500000
 20
68.300000
  0
VERTEX
  8
FEATURES
 62
     0
  6
CONTINUOUS
 10
95.400000
 20
67.900000
  0
VERTEX
  8
FEATURES
 62
     0
  6
CONTINUOUS
 10
95.100000
 20
67.600000
  0
VERTEX
  8
FEATURES
 62
     0
  6
CONTINUOUS
 10
94.800000
 20
67.500000
  0
VERTEX
  8
FEATURES
 62
     0
  6
CONTINUOUS
 10
94.400000
 20
67.600000
  0
VERTEX
  8
FEATURES
 62
     0
  6
CONTINUOUS
 10
94.000000
 20
67.700000
  0
VERTEX
  8
FEATURES
 62
     0
  6
CONTINUOUS
 10
93.600000
 20
67.600000
  0
VERTEX
  8
FEATURES
 62
     0
  6
CONTINUOUS
 10
93.400000
 20
67.400000
  0
VERTEX
  8
FEATURES
 62
     0
  6
CONTINUOUS
 10
93.300000
 20
67.000000
  0
VERTEX
  8
FEATURES
 62
     0
  6
CONTINUOUS
 10
93.400000
 20
66.600000
  0
VERTEX
  8
FEATURES
 62
     0
  6
CONTINUOUS
 10
93.600000
 20
66.300000
  0
VERTEX
  8
FEATURES
 62
     0
  6
CONTINUOUS
 10
94.000000
 20
66.200000
  0
VERTEX
  8
FEATURES
 62
     0
  6
CONTINUOUS
 10
94.400000
 20
66.300000
  0
SEQEND
  8
FEATURES
  0
POLYLINE
  8
FEATURES
 62
     0
  6
CONTINUOUS
 66
     1
 40
0.100000
 41
0.100000
  0
VERTEX
  8
FEATURES
 62
     0
  6
CONTINUOUS
 10
91.900000
 20
64.800000
  0
VERTEX
  8
FEATURES
 62
     0
  6
CONTINUOUS
 10
92.300000
 20
64.800000
  0
VERTEX
  8
FEATURES
 62
     0
  6
CONTINUOUS
 10
92.600000
 20
64.600000
  0
VERTEX
  8
FEATURES
 62
     0
  6
CONTINUOUS
 10
92.900000
 20
64.300000
  0
VERTEX
  8
FEATURES
 62
     0
  6
CONTINUOUS
 10
92.900000
 20
63.900000
  0
VERTEX
  8
FEATURES
 62
     0
  6
CONTINUOUS
 10
92.700000
 20
63.600000
  0
VERTEX
  8
FEATURES
 62
     0
  6
CONTINUOUS
 10
92.400000
 20
63.300000
  0
VERTEX
  8
FEATURES
 62
     0
  6
CONTINUOUS
 10
92.000000
 20
63.300000
  0
VERTEX
  8
FEATURES
 62
     0
  6
CONTINUOUS
 10
91.600000
 20
63.500000
  0
VERTEX
  8
FEATURES
 62
     0
  6
CONTINUOUS
 10
91.300000
 20
63.700000
  0
VERTEX
  8
FEATURES
 62
     0
  6
CONTINUOUS
 10
90.900000
 20
63.700000
  0
VERTEX
  8
FEATURES
 62
     0
  6
CONTINUOUS
 10
90.600000
 20
63.400000
  0
VERTEX
  8
FEATURES
 62
     0
  6
CONTINUOUS
 10
90.400000
 20
63.100000
  0
VERTEX
  8
FEATURES
 62
     0
  6
CONTINUOUS
 10
90.400000
 20
62.700000
  0
VERTEX
  8
FEATURES
 62
     0
  6
CONTINUOUS
 10
90.600000
 20
62.400000
  0
VERTEX
  8
FEATURES
 62
     0
  6
CONTINUOUS
 10
91.000000
 20
62.200000
  0
VERTEX
  8
FEATURES
 62
     0
  6
CONTINUOUS
 10
91.400000
 20
62.200000
  0
SEQEND
  8
FEATURES
  0
POLYLINE
  8
FEATURES
 62
     0
  6
CONTINUOUS
 66
     1
 40
0.100000
 41
0.100000
  0
VERTEX
  8
FEATURES
 62
     0
  6
CONTINUOUS
 10
88.500000
 20
61.000000
  0
VERTEX
  8
FEATURES
 62
     0
  6
CONTINUOUS
 10
88.900000
 20
61.000000
  0
VERTEX
  8
FEATURES
 62
     0
  6
CONTINUOUS
 10
89.300000
 20
60.900000
  0
VERTEX
  8
FEATURES
 62
     0
  6
CONTINUOUS
 10
89.500000
 20
60.600000
  0
VERTEX
  8
FEATURES
 62
     0
  6
CONTINUOUS
 10
89.600000
 20
60.200000
  0
VERTEX
  8
FEATURES
 62
     0
  6
CONTINUOUS
 10
89.500000
 20
59.900000
  0
VERTEX
  8
FEATURES
 62
     0
  6
CONTINUOUS
 10
89.100000
 20
59.600000
  0
VERTEX
  8
FEATURES
 62
     0
  6
CONTINUOUS
 10
88.800000
 20
59.600000
  0
VERTEX
  8
FEATURES
 62
     0
  6
CONTINUOUS
 10
88.400000
 20
59.700000
  0
VERTEX
  8
FEATURES
 62
     0
  6
CONTINUOUS
 10
88.000000
 20
59.800000
  0
VERTEX
  8
FEATURES
 62
     0
  6
CONTINUOUS
 10
87.700000
 20
59.800000
  0
VERTEX
  8
FEATURES
 62
     0
  6
CONTINUOUS
 10
87.400000
 20
59.500000
  0
VERTEX
  8
FEATURES
 62
     0
  6
CONTINUOUS
 10
87.200000
 20
59.200000
  0
VERTEX
  8
FEATURES
 62
     0
  6
CONTINUOUS
 10
87.300000
 20
58.800000
  0
VERTEX
  8
FEATURES
 62
     0
  6
CONTINUOUS
 10
87.500000
 20
58.500000
  0
VERTEX
  8
FEATURES
 62
     0
  6
CONTINUOUS
 10
87.900000
 20
58.300000
  0
VERTEX
  8
FEATURES
 62
     0
  6
CONTINUOUS
 10
88.300000
 20
58.400000
  0
SEQEND
  8
FEATURES
  0
POLYLINE
  8
FEATURES
 62
     0
  6
CONTINUOUS
 66
     1
 40
0.100000
 41
0.100000
  0
VERTEX
  8
FEATURES
 62
     0
  6
CONTINUOUS
 10
85.300000
 20
57.200000
  0
VERTEX
  8
FEATURES
 62
     0
  6
CONTINUOUS
 10
85.700000
 20
57.300000
  0
VERTEX
  8
FEATURES
 62
     0
  6
CONTINUOUS
 10
86.100000
 20
57.100000
  0
VERTEX
  8
FEATURES
 62
     0
  6
CONTINUOUS
 10
86.300000
 20
56.800000
  0
VERTEX
  8
FEATURES
 62
     0
  6
CONTINUOUS
 10
86.300000
 20
56.400000
  0
VERTEX
  8
FEATURES
 62
     0
  6
CONTINUOUS
 10
86.100000
 20
56.000000
  0
VERTEX
  8
FEATURES
 62
     0
  6
CONTINUOUS
 10
85.800000
 20
55.800000
  0
VERTEX
  8
FEATURES
 62
     0
  6
CONTINUOUS
 10
85.400000
 20
55.800000
  0
VERTEX
  8
FEATURES
 62
     0
  6
CONTINUOUS
 10
85.100000
 20
56.000000
  0
VERTEX
  8
FEATURES
 62
     0
  6
CONTINUOUS
 10
84.700000
 20
56.200000
  0
VERTEX
  8
FEATURES
 62
     0
  6
CONTINUOUS
 10
84.300000
 20
56.100000
  0
VERTEX
  8
FEATURES
 62
     0
  6
CONTINUOUS
 10
84.000000
 20
55.900000
  0
VERTEX
  8
FEATURES
 62
     0
  6
CONTINUOUS
 10
83.800000
 20
55.600000
  0
VERTEX
  8
FEATURES
 62
     0
  6
CONTINUOUS
 10
83.800000
 20
55.200000
  0
VERTEX
  8
FEATURES
 62
     0
  6
CONTINUOUS
 10
84.100000
 20
54.900000
  0
VERTEX
  8
FEATURES
 62
     0
  6
CONTINUOUS
 10
84.400000
 20
54.700000
  0
VERTEX
  8
FEATURES
 62
     0
  6
CONTINUOUS
 10
84.800000
 20
54.700000
  0
SEQEND
  8
FEATURES
  0
POLYLINE
  8
FEATURES
 62
     0
  6
CONTINUOUS
 66
     1
 40
0.100000
 41
0.100000
  0
VERTEX
  8
FEATURES
 62
     0
  6
CONTINUOUS
 10
82.900000
 20
52.700000
  0
VERTEX
  8
FEATURES
 62
     0
  6
CONTINUOUS
 10
83.200000
 20
52.900000
  0
VERTEX
  8
FEATURES
 62
     0
  6
CONTINUOUS
 10
83.600000
 20
52.800000
  0
VERTEX
  8
FEATURES
 62
     0
  6
CONTINUOUS
 10
83.900000
 20
52.600000
  0
VERTEX
  8
FEATURES
 62
     0
  6
CONTINUOUS
 10
84.100000
 20
52.200000
  0
VERTEX
  8
FEATURES
 62
     0
  6
CONTINUOUS
 10
84.000000
 20
51.800000
  0
VERTEX
  8
FEATURES
 62
     0
  6
CONTINUOUS
 10
83.800000
 20
51.500000
  0
VERTEX
  8
FEATURES
 62
     0
  6
CONTINUOUS
 10
83.400000
 20
51.400000
  0
VERTEX
  8
FEATURES
 62
     0
  6
CONTINUOUS
 10
83.000000
 20
51.400000
  0
VERTEX
  8
FEATURES
 62
     0
  6
CONTINUOUS
 10
82.600000
 20
51.500000
  0
VERTEX
  8
FEATURES
 62
     0
  6
CONTINUOUS
 10
82.300000
 20
51.300000
  0
VERTEX
  8
FEATURES
 62
     0
  6
CONTINUOUS
 10
82.000000
 20
51.000000
  0
VERTEX
  8
FEATURES
 62
     0
  6
CONTINUOUS
 10
82.000000
 20
50.700000
  0
VERTEX
  8
FEATURES
 62
     0
  6
CONTINUOUS
 10
82.100000
 20
50.300000
  0
VERTEX
  8
FEATURES
 62
     0
  6
CONTINUOUS
 10
82.400000
 20
50.100000
  0
VERTEX
  8
FEATURES
 62
     0
  6
CONTINUOUS
 10
82.800000
 20
50.000000
  0
VERTEX
  8
FEATURES
 62
     0
  6
CONTINUOUS
 10
83.200000
 20
50.100000
  0
SEQEND
  8
FEATURES
  0
POLYLINE
  8
FEATURES
 62
     0
  6
CONTINUOUS
 66
     1
 40
0.100000
 41
0.100000
  0
VERTEX
  8
FEATURES
 62
     0
  6
CONTINUOUS
 10
80.700000
 20
48.300000
  0
VERTEX
  8
FEATURES
 62
     0
  6
CONTINUOUS
 10
81.100000
 20
48.400000
  0
VERTEX
  8
FEATURES
 62
     0
  6
CONTINUOUS
 10
81.500000
 20
48.300000
  0
VERTEX
  8
FEATURES
 62
     0
  6
CONTINUOUS
 10
81.800000
 20
48.000000
  0
VERTEX
  8
FEATURES
 62
     0
  6
CONTINUOUS
 10
81.900000
 20
47.600000
  0
VERTEX
  8
FEATURES
 62
     0
  6
CONTINUOUS
 10
81.700000
 20
47.300000
  0
VERTEX
  8
FEATURES
 62
     0
  6
CONTINUOUS
 10
81.500000
 20
47.000000
  0
VERTEX
  8
FEATURES
 62
     0
  6
CONTINUOUS
 10
81.100000
 20
46.900000
  0
VERTEX
  8
FEATURES
 62
     0
  6
CONTINUOUS
 10
80.700000
 20
47.000000
  0
VERTEX
  8
FEATURES
 62
     0
  6
CONTINUOUS
 10
80.300000
 20
47.100000
  0
VERTEX
  8
FEATURES
 62
     0
  6
CONTINUOUS
 10
80.000000
 20
47.000000
  0
VERTEX
  8
FEATURES
 62
     0
  6
CONTINUOUS
 10
79.700000
 20
46.800000
  0
VERTEX
  8
FEATURES
 62
     0
  6
CONTINUOUS
 10
79.600000
 20
46.400000
  0
VERTEX
  8
FEATURES
 62
     0
  6
CONTINUOUS
 10
79.700000
 20
46.000000
  0
VERTEX
  8
FEATURES
 62
     0
  6
CONTINUOUS
 10
79.900000
 20
45.700000
  0
VERTEX
  8
FEATURES
 62
     0
  6
CONTINUOUS
 10
80.300000
 20
45.600000
  0
VERTEX
  8
FEATURES
 62
     0
  6
CONTINUOUS
 10
80.700000
 20
45.700000
  0
SEQEND
  8
FEATURES
  0
POLYLINE
  8
FEATURES
 62
     0
  6
CONTINUOUS
 66
     1
 40
0.100000
 41
0.100000
  0
VERTEX
  8
FEATURES
 62
     0
  6
CONTINUOUS
 10
77.900000
 20
44.300000
  0
VERTEX
  8
FEATURES
 62
     0
  6
CONTINUOUS
 10
78.300000
 20
44.300000
  0
VERTEX
  8
FEATURES
 62
     0
  6
CONTINUOUS
 10
78.700000
 20
44.200000
  0
VERTEX
  8
FEATURES
 62
     0
  6
CONTINUOUS
 10
78.900000
 20
43.800000
  0
VERTEX
  8
FEATURES
 62
     0
  6
CONTINUOUS
 10
78.900000
 20
43.400000
  0
VERTEX
  8
FEATURES
 62
     0
  6
CONTINUOUS
 10
78.700000
 20
43.100000
  0
VERTEX
  8
FEATURES
 62
     0
  6
CONTINUOUS
 10
78.400000
 20
42.900000
  0
VERTEX
  8
FEATURES
 62
     0
  6
CONTINUOUS
 10
78.000000
 20
42.900000
  0
VERTEX
  8
FEATURES
 62
     0
  6
CONTINUOUS
 10
77.600000
 20
43.100000
  0
VERTEX
  8
FEATURES
 62
     0
  6
CONTINUOUS
 10
77.300000
 20
43.300000
  0
VERTEX
  8
FEATURES
 62
     0
  6
CONTINUOUS
 10
76.900000
 20
43.200000
  0
VERTEX
  8
FEATURES
 62
     0
  6
CONTINUOUS
 10
76.600000
 20
43.000000
  0
VERTEX
  8
FEATURES
 62
     0
  6
CONTINUOUS
 10
76.400000
 20
42.700000
  0
VERTEX
  8
FEATURES
 62
     0
  6
CONTINUOUS
 10
76.400000
 20
42.300000
  0
VERTEX
  8
FEATURES
 62
     0
  6
CONTINUOUS
 10
76.600000
 20
42.000000
  0
VERTEX
  8
FEATURES
 62
     0
  6
CONTINUOUS
 10
77.000000
 20
41.800000
  0
VERTEX
  8
FEATURES
 62
     0
  6
CONTINUOUS
 10
77.400000
 20
41.800000
  0
SEQEND
  8
FEATURES
  0
POLYLINE
  8
FEATURES
 62
     0
  6
CONTINUOUS
 66
     1
 40
0.100000
 41
0.100000
  0
VERTEX
  8
FEATURES
 62
     0
  6
CONTINUOUS
 10
74.400000
 20
40.800000
  0
VERTEX
  8
FEATURES
 62
     0
  6
CONTINUOUS
 10
74.800000
 20
40.800000
  0
VERTEX
  8
FEATURES
 62
     0
  6
CONTINUOUS
 10
75.200000
 20
40.600000
  0
VERTEX
  8
FEATURES
 62
     0
  6
CONTINUOUS
 10
75.400000
 20
40.300000
  0
VERTEX
  8
FEATURES
 62
     0
  6
CONTINUOUS
 10
75.400000
 20
39.900000
  0
VERTEX
  8
FEATURES
 62
     0
  6
CONTINUOUS
 10
75.200000
 20
39.500000
  0
VERTEX
  8
FEATURES
 62
     0
  6
CONTINUOUS
 10
74.900000
 20
39.300000
  0
VERTEX
  8
FEATURES
 62
     0
  6
CONTINUOUS
 10
74.500000
 20
39.300000
  0
VERTEX
  8
FEATURES
 62
     0
  6
CONTINUOUS
 10
74.100000
 20
39.500000
  0
VERTEX
  8
FEATURES
 62
     0
  6
CONTINUOUS
 10
73.800000
 20
39.700000
  0
VERTEX
  8
FEATURES
 62
     0
  6
CONTINUOUS
 10
73.400000
 20
39.700000
  0
VERTEX
  8
FEATURES
 62
     0
  6
CONTINUOUS
 10
73.100000
 20
39.500000
  0
VERTEX
  8
FEATURES
 62
     0
  6
CONTINUOUS
 10
72.900000
 20
39.200000
  0
VERTEX
  8
FEATURES
 62
     0
  6
CONTINUOUS
 10
72.900000
 20
38.800000
  0
VERTEX
  8
FEATURES
 62
     0
  6
CONTINUOUS
 10
73.100000
 20
38.400000
  0
VERTEX
  8
FEATURES
 62
     0
  6
CONTINUOUS
 10
73.400000
 20
38.200000
  0
VERTEX
  8
FEATURES
 62
     0
  6
CONTINUOUS
 10
73.800000
 20
38.300000
  0
SEQEND
  8
FEATURES
  0
POLYLINE
  8
FEATURES
 62
     0
  6
CONTINUOUS
 66
     1
 40
0.100000
 41
0.100000
  0
VERTEX
  8
FEATURES
 62
     0
  6
CONTINUOUS
 10
71.000000
 20
37.200000
  0
VERTEX
  8
FEATURES
 62
     0
  6
CONTINUOUS
 10
71.400000
 20
37.200000
  0
VERTEX
  8
FEATURES
 62
     0
  6
CONTINUOUS
 10
71.700000
 20
37.000000
  0
VERTEX
  8
FEATURES
 62
     0
  6
CONTINUOUS
 10
71.900000
 20
36.600000
  0
VERTEX
  8
FEATURES
 62
     0
  6
CONTINUOUS
 10
71.900000
 20
36.300000
  0
VERTEX
  8
FEATURES
 62
     0
  6
CONTINUOUS
 10
71.700000
 20
35.900000
  0
VERTEX
  8
FEATURES
 62
     0
  6
CONTINUOUS
 10
71.400000
 20
35.700000
  0
VERTEX
  8
FEATURES
 62
     0
  6
CONTINUOUS
 10
71.000000
 20
35.700000
  0
VERTEX
  8
FEATURES
 62
     0
  6
CONTINUOUS
 10
70.700000
 20
35.900000
  0
VERTEX
  8
FEATURES
 62
     0
  6
CONTINUOUS
 10
70.300000
 20
36.100000
  0
VERTEX
  8
FEATURES
 62
     0
  6
CONTINUOUS
 10
69.900000
 20
36.100000
  0
VERTEX
  8
FEATURES
 62
     0
  6
CONTINUOUS
 10
69.600000
 20
35.900000
  0
VERTEX
  8
FEATURES
 62
     0
  6
CONTINUOUS
 10
69.400000
 20
35.600000
  0
VERTEX
  8
FEATURES
 62
     0
  6
CONTINUOUS
 10
69.400000
 20
35.200000
  0
VERTEX
  8
FEATURES
 62
     0
  6
CONTINUOUS
 10
69.600000
 20
34.900000
  0
VERTEX
  8
FEATURES
 62
     0
  6
CONTINUOUS
 10
69.900000
 20
34.700000
  0
VERTEX
  8
FEATURES
 62
     0
  6
CONTINUOUS
 10
70.300000
 20
34.700000
  0
SEQEND
  8
FEATURES
  0
POLYLINE
  8
FEATURES
 62
     0
  6
CONTINUOUS
 66
     1
 40
0.100000
 41
0.100000
  0
VERTEX
  8
FEATURES
 62
     0
  6
CONTINUOUS
 10
67.600000
 20
33.800000
  0
VERTEX
  8
FEATURES
 62
     0
  6
CONTINUOUS
 10
67.900000
 20
33.700000
  0
VERTEX
  8
FEATURES
 62
     0
  6
CONTINUOUS
 10
68.200000
 20
33.400000
  0
VERTEX
  8
FEATURES
 62
     0
  6
CONTINUOUS
 10
68.200000
 20
33.000000
  0
VERTEX
  8
FEATURES
 62
     0
  6
CONTINUOUS
 10
68.100000
 20
32.600000
  0
VERTEX
  8
FEATURES
 62
     0
  6
CONTINUOUS
 10
67.800000
 20
32.400000
  0
VERTEX
  8
FEATURES
 62
     0
  6
CONTINUOUS
 10
67.400000
 20
32.300000
  0
VERTEX
  8
FEATURES
 62
     0
  6
CONTINUOUS
 10
67.100000
 20
32.500000
  0
VERTEX
  8
FEATURES
 62
     0
  6
CONTINUOUS
 10
66.800000
 20
32.800000
  0
VERTEX
  8
FEATURES
 62
     0
  6
CONTINUOUS
 10
66.600000
 20
33.000000
  0
VERTEX
  8
FEATURES
 62
     0
  6
CONTINUOUS
 10
66.200000
 20
33.200000
  0
VERTEX
  8
FEATURES
 62
     0
  6
CONTINUOUS
 10
65.800000
 20
33.100000
  0
VERTEX
  8
FEATURES
 62
     0
  6
CONTINUOUS
 10
65.500000
 20
32.900000
  0
VERTEX
  8
FEATURES
 62
     0
  6
CONTINUOUS
 10
65.400000
 20
32.500000
  0
VERTEX
  8
FEATURES
 62
     0
  6
CONTINUOUS
 10
65.500000
 20
32.100000
  0
VERTEX
  8
FEATURES
 62
     0
  6
CONTINUOUS
 10
65.700000
 20
31.800000
  0
VERTEX
  8
FEATURES
 62
     0
  6
CONTINUOUS
 10
66.100000
 20
31.700000
  0
SEQEND
  8
FEATURES
  0
POLYLINE
  8
FEATURES
 62
     0
  6
CONTINUOUS
 66
     1
 40
0.100000
 41
0.100000
  0
VERTEX
  8
FEATURES
 62
     0
  6
CONTINUOUS
 10
63.000000
 20
31.700000
  0
VERTEX
  8
FEATURES
 62
     0
  6
CONTINUOUS
 10
63.400000
 20
31.600000
  0
VERTEX
  8
FEATURES
 62
     0
  6
CONTINUOUS
 10
63.600000
 20
31.300000
  0
VERTEX
  8
FEATURES
 62
     0
  6
CONTINUOUS
 10
63.700000
 20
30.900000
  0
VERTEX
  8
FEATURES
 62
     0
  6
CONTINUOUS
 10
63.600000
 20
30.500000
  0
VERTEX
  8
FEATURES
 62
     0
  6
CONTINUOUS
 10
63.300000
 20
30.300000
  0
VERTEX
  8
FEATURES
 62
     0
  6
CONTINUOUS
 10
62.900000
 20
30.200000
  0
VERTEX
  8
FEATURES
 62
     0
  6
CONTINUOUS
 10
62.500000
 20
30.300000
  0
VERTEX
  8
FEATURES
 62
     0
  6
CONTINUOUS
 10
62.300000
 20
30.600000
  0
VERTEX
  8
FEATURES
 62
     0
  6
CONTINUOUS
 10
62.000000
 20
30.900000
  0
VERTEX
  8
FEATURES
 62
     0
  6
CONTINUOUS
 10
61.700000
 20
31.000000
  0
VERTEX
  8
FEATURES
 62
     0
  6
CONTINUOUS
 10
61.300000
 20
31.000000
  0
VERTEX
  8
FEATURES
 62
     0
  6
CONTINUOUS
 10
61.000000
 20
30.700000
  0
VERTEX
  8
FEATURES
 62
     0
  6
CONTINUOUS
 10
60.900000
 20
30.300000
  0
VERTEX
  8
FEATURES
 62
     0
  6
CONTINUOUS
 10
60.900000
 20
30.000000
  0
VERTEX
  8
FEATURES
 62
     0
  6
CONTINUOUS
 10
61.200000
 20
29.700000
  0
VERTEX
  8
FEATURES
 62
     0
  6
CONTINUOUS
 10
61.600000
 20
29.500000
  0
SEQEND
  8
FEATURES
  0
POLYLINE
  8
FEATURES
 62
     0
  6
CONTINUOUS
 66
     1
 40
0.100000
 41
0.100000
  0
VERTEX
  8
FEATURES
 62
     0
  6
CONTINUOUS
 10
58.500000
 20
29.500000
  0
VERTEX
  8
FEATURES
 62
     0
  6
CONTINUOUS
 10
58.900000
 20
29.400000
  0
VERTEX
  8
FEATURES
 62
     0
  6
CONTINUOUS
 10
59.100000
 20
29.100000
  0
VERTEX
  8
FEATURES
 62
     0
  6
CONTINUOUS
 10
59.200000
 20
28.800000
  0
VERTEX
  8
FEATURES
 62
     0
  6
CONTINUOUS
 10
59.100000
 20
28.400000
  0
VERTEX
  8
FEATURES
 62
     0
  6
CONTINUOUS
 10
58.800000
 20
28.100000
  0
VERTEX
  8
FEATURES
 62
     0
  6
CONTINUOUS
 10
58.400000
 20
28.000000
  0
VERTEX
  8
FEATURES
 62
     0
  6
CONTINUOUS
 10
58.100000
 20
28.200000
  0
VERTEX
  8
FEATURES
 62
     0
  6
CONTINUOUS
 10
57.800000
 20
28.400000
  0
VERTEX
  8
FEATURES
 62
     0
  6
CONTINUOUS
 10
57.500000
 20
28.700000
  0
VERTEX
  8
FEATURES
 62
     0
  6
CONTINUOUS
 10
57.200000
 20
28.800000
  0
VERTEX
  8
FEATURES
 62
     0
  6
CONTINUOUS
 10
56.800000
 20
28.700000
  0
VERTEX
  8
FEATURES
 62
     0
  6
CONTINUOUS
 10
56.500000
 20
28.500000
  0
VERTEX
  8
FEATURES
 62
     0
  6
CONTINUOUS
 10
56.400000
 20
28.100000
  0
VERTEX
  8
FEATURES
 62
     0
  6
CONTINUOUS
 10
56.500000
 20
27.700000
  0
VERTEX
  8
FEATURES
 62
     0
  6
CONTINUOUS
 10
56.700000
 20
27.400000
  0
VERTEX
  8
FEATURES
 62
     0
  6
CONTINUOUS
 10
57.100000
 20
27.300000
  0
SEQEND
  8
FEATURES
  0
POLYLINE
  8
FEATURES
 62
     0
  6
CONTINUOUS
 66
     1
 40
0.100000
 41
0.100000
  0
VERTEX
  8
FEATURES
 62
     0
  6
CONTINUOUS
 10
54.100000
 20
27.000000
  0
VERTEX
  8
FEATURES
 62
     0
  6
CONTINUOUS
 10
54.500000
 20
26.900000
  0
VERTEX
  8
FEATURES
 62
     0
  6
CONTINUOUS
 10
54.800000
 20
26.700000
  0
VERTEX
  8
FEATURES
 62
     0
  6
CONTINUOUS
 10
54.900000
 20
26.300000
  0
VERTEX
  8
FEATURES
 62
     0
  6
CONTINUOUS
 10
54.900000
 20
25.900000
  0
VERTEX
  8
FEATURES
 62
     0
  6
CONTINUOUS
 10
54.600000
 20
25.600000
  0
VERTEX
  8
FEATURES
 62
     0
  6
CONTINUOUS
 10
54.200000
 20
25.500000
  0
VERTEX
  8
FEATURES
 62
     0
  6
CONTINUOUS
 10
53.900000
 20
25.600000
  0
VERTEX
  8
FEATURES
 62
     0
  6
CONTINUOUS
 10
53.600000
 20
25.800000
  0
VERTEX
  8
FEATURES
 62
     0
  6
CONTINUOUS
 10
53.300000
 20
26.000000
  0
VERTEX
  8
FEATURES
 62
     0
  6
CONTINUOUS
 10
52.900000
 20
26.100000
  0
VERTEX
  8
FEATURES
 62
     0
  6
CONTINUOUS
 10
52.500000
 20
26.000000
  0
VERTEX
  8
FEATURES
 62
     0
  6
CONTINUOUS
 10
52.300000
 20
25.700000
  0
VERTEX
  8
FEATURES
 62
     0
  6
CONTINUOUS
 10
52.200000
 20
25.300000
  0
VERTEX
  8
FEATURES
 62
     0
  6
CONTINUOUS
 10
52.300000
 20
24.900000
  0
VERTEX
  8
FEATURES
 62
     0
  6
CONTINUOUS
 10
52.600000
 20
24.700000
  0
VERTEX
  8
FEATURES
 62
     0
  6
CONTINUOUS
 10
53.000000
 20
24.600000
  0
SEQEND
  8
FEATURES
  0
POLYLINE
  8
FEATURES
 62
     0
  6
CONTINUOUS
 66
     1
 40
0.100000
 41
0.100000
  0
VERTEX
  8
FEATURES
 62
     0
  6
CONTINUOUS
 10
50.000000
 20
24.100000
  0
VERTEX
  8
FEATURES
 62
     0
  6
CONTINUOUS
 10
50.400000
 20
24.000000
  0
VERTEX
  8
FEATURES
 62
     0
  6
CONTINUOUS
 10
50.700000
 20
23.800000
  0
VERTEX
  8
FEATURES
 62
     0
  6
CONTINUOUS
 10
50.800000
 20
23.500000
  0
VERTEX
  8
FEATURES
 62
     0
  6
CONTINUOUS
 10
50.800000
 20
23.100000
  0
VERTEX
  8
FEATURES
 62
     0
  6
CONTINUOUS
 10
50.600000
 20
22.700000
  0
VERTEX
  8
FEATURES
 62
     0
  6
CONTINUOUS
 10
50.200000
 20
22.600000
  0
VERTEX
  8
FEATURES
 62
     0
  6
CONTINUOUS
 10
49.800000
 20
22.600000
  0
VERTEX
  8
FEATURES
 62
     0
  6
CONTINUOUS
 10
49.500000
 20
22.800000
  0
VERTEX
  8
FEATURES
 62
     0
  6
CONTINUOUS
 10
49.200000
 20
23.100000
  0
VERTEX
  8
FEATURES
 62
     0
  6
CONTINUOUS
 10
48.800000
 20
23.100000
  0
VERTEX
  8
FEATURES
 62
     0
  6
CONTINUOUS
 10
48.500000
 20
22.900000
  0
VERTEX
  8
FEATURES
 62
     0
  6
CONTINUOUS
 10
48.300000
 20
22.600000
  0
VERTEX
  8
FEATURES
 62
     0
  6
CONTINUOUS
 10
48.200000
 20
22.200000
  0
VERTEX
  8
FEATURES
 62
     0
  6
CONTINUOUS
 10
48.400000
 20
21.900000
  0
VERTEX
  8
FEATURES
 62
     0
  6
CONTINUOUS
 10
48.700000
 20
21.700000
  0
VERTEX
  8
FEATURES
 62
     0
  6
CONTINUOUS
 10
49.100000
 20
21.600000
  0
SEQEND
  8
FEATURES
  0
POLYLINE
  8
FEATURES
 62
     0
  6
CONTINUOUS
 66
     1
 40
0.100000
 41
0.100000
  0
VERTEX
  8
FEATURES
 62
     0
  6
CONTINUOUS
 10
46.200000
 20
20.700000
  0
VERTEX
  8
FEATURES
 62
     0
  6
CONTINUOUS
 10
46.600000
 20
20.700000
  0
VERTEX
  8
FEATURES
 62
     0
  6
CONTINUOUS
 10
47.000000
 20
20.500000
  0
VERTEX
  8
FEATURES
 62
     0
  6
CONTINUOUS
 10
47.100000
 20
20.100000
  0
VERTEX
  8
FEATURES
 62
     0
  6
CONTINUOUS
 10
47.100000
 20
19.700000
  0
VERTEX
  8
FEATURES
 62
     0
  6
CONTINUOUS
 10
46.900000
 20
19.400000
  0
VERTEX
  8
FEATURES
 62
     0
  6
CONTINUOUS
 10
46.600000
 20
19.200000
  0
VERTEX
  8
FEATURES
 62
     0
  6
CONTINUOUS
 10
46.200000
 20
19.300000
  0
VERTEX
  8
FEATURES
 62
     0
  6
CONTINUOUS
 10
45.900000
 20
19.500000
  0
VERTEX
  8
FEATURES
 62
     0
  6
CONTINUOUS
 10
45.500000
 20
19.700000
  0
VERTEX
  8
FEATURES
 62
     0
  6
CONTINUOUS
 10
45.100000
 20
19.700000
  0
VERTEX
  8
FEATURES
 62
     0
  6
CONTINUOUS
 10
44.800000
 20
19.500000
  0
VERTEX
  8
FEATURES
 62
     0
  6
CONTINUOUS
 10
44.600000
 20
19.200000
  0
VERTEX
  8
FEATURES
 62
     0
  6
CONTINUOUS
 10
44.600000
 20
18.800000
  0
VERTEX
  8
FEATURES
 62
     0
  6
CONTINUOUS
 10
44.800000
 20
18.400000
  0
VERTEX
  8
FEATURES
 62
     0
  6
CONTINUOUS
 10
45.100000
 20
18.200000
  0
VERTEX
  8
FEATURES
 62
     0
  6
CONTINUOUS
 10
45.500000
 20
18.200000
  0
SEQEND
  8
FEATURES
  0
POLYLINE
  8
FEATURES
 62
     0
  6
CONTINUOUS
 66
     1
 40
0.100000
 41
0.100000
  0
VERTEX
  8
FEATURES
 62
     0
  6
CONTINUOUS
 10
42.700000
 20
17.000000
  0
VERTEX
  8
FEATURES
 62
     0
  6
CONTINUOUS
 10
43.100000
 20
17.000000
  0
VERTEX
  8
FEATURES
 62
     0
  6
CONTINUOUS
 10
43.500000
 20
16.900000
  0
VERTEX
  8
FEATURES
 62
     0
  6
CONTINUOUS
 10
43.700000
 20
16.600000
  0
VERTEX
  8
FEATURES
 62
     0
  6
CONTINUOUS
 10
43.800000
 20
16.200000
  0
VERTEX
  8
FEATURES
 62
     0
  6
CONTINUOUS
 10
43.700000
 20
15.800000
  0
VERTEX
  8
FEATURES
 62
     0
  6
CONTINUOUS
 10
43.300000
 20
15.600000
  0
VERTEX
  8
FEATURES
 62
     0
  6
CONTINUOUS
 10
43.000000
 20
15.500000
  0
VERTEX
  8
FEATURES
 62
     0
  6
CONTINUOUS
 10
42.600000
 20
15.700000
  0
VERTEX
  8
FEATURES
 62
     0
  6
CONTINUOUS
 10
42.200000
 20
15.800000
  0
VERTEX
  8
FEATURES
 62
     0
  6
CONTINUOUS
 10
41.900000
 20
15.800000
  0
VERTEX
  8
FEATURES
 62
     0
  6
CONTINUOUS
 10
41.600000
 20
15.500000
  0
VERTEX
  8
FEATURES
 62
     0
  6
CONTINUOUS
 10
41.400000
 20
15.200000
  0
VERTEX
  8
FEATURES
 62
     0
  6
CONTINUOUS
 10
41.500000
 20
14.800000
  0
VERTEX
  8
FEATURES
 62
     0
  6
CONTINUOUS
 10
41.700000
 20
14.500000
  0
VERTEX
  8
FEATURES
 62
     0
  6
CONTINUOUS
 10
42.100000
 20
14.300000
  0
VERTEX
  8
FEATURES
 62
     0
  6
CONTINUOUS
 10
42.500000
 20
14.400000
  0
SEQEND
  8
FEATURES
  0
POLYLINE
  8
FEATURES
 62
     0
  6
CONTINUOUS
 66
     1
 40
0.100000
 41
0.100000
  0
VERTEX
  8
FEATURES
 62
     0
  6
CONTINUOUS
 10
40.300000
 20
12.400000
  0
VERTEX
  8
FEATURES
 62
     0
  6
CONTINUOUS
 10
40.600000
 20
12.600000
  0
VERTEX
  8
FEATURES
 62
     0
  6
CONTINUOUS
 10
41.000000
 20
12.600000
  0
VERTEX
  8
FEATURES
 62
     0
  6
CONTINUOUS
 10
41.400000
 20
12.500000
  0
VERTEX
  8
FEATURES
 62
     0
  6
CONTINUOUS
 10
41.600000
 20
12.100000
  0
VERTEX
  8
FEATURES
 62
     0
  6
CONTINUOUS
 10
41.600000
 20
11.800000
  0
VERTEX
  8
FEATURES
 62
     0
  6
CONTINUOUS
 10
41.500000
 20
11.400000
  0
VERTEX
  8
FEATURES
 62
     0
  6
CONTINUOUS
 10
41.100000
 20
11.200000
  0
VERTEX
  8
FEATURES
 62
     0
  6
CONTINUOUS
 10
40.800000
 20
11.100000
  0
VERTEX
  8
FEATURES
 62
     0
  6
CONTINUOUS
 10
40.400000
 20
11.100000
  0
VERTEX
  8
FEATURES
 62
     0
  6
CONTINUOUS
 10
40.000000
 20
10.900000
  0
VERTEX
  8
FEATURES
 62
     0
  6
CONTINUOUS
 10
39.900000
 20
10.500000
  0
VERTEX
  8
FEATURES
 62
     0
  6
CONTINUOUS
 10
39.900000
 20
10.200000
  0
VERTEX
  8
FEATURES
 62
     0
  6
CONTINUOUS
 10
40.100000
 20
9.800000
  0
VERTEX
  8
FEATURES
 62
     0
  6
CONTINUOUS
 10
40.500000
 20
9.700000
  0
VERTEX
  8
FEATURES
 62
     0
  6
CONTINUOUS
 10
40.900000
 20
9.700000
  0
VERTEX
  8
FEATURES
 62
     0
  6
CONTINUOUS
 10
41.200000
 20
9.900000
  0
SEQEND
  8
FEATURES
  0
POLYLINE
  8
FEATURES
 62
     0
  6
CONTINUOUS
 66
     1
 40
0.100000
 41
0.100000
  0
VERTEX
  8
FEATURES
 62
     0
  6
CONTINUOUS
 10
39.300000
 20
7.600000
  0
VERTEX
  8
FEATURES
 62
     0
  6
CONTINUOUS
 10
39.600000
 20
7.800000
  0
VERTEX
  8
FEATURES
 62
     0
  6
CONTINUOUS
 10
40.000000
 20
7.700000
  0
VERTEX
  8
FEATURES
 62
     0
  6
CONTINUOUS
 10
40.300000
 20
7.500000
  0
VERTEX
  8
FEATURES
 62
     0
  6
CONTINUOUS
 10
40.500000
 20
7.200000
  0
VERTEX
  8
FEATURES
 62
     0
  6
CONTINUOUS
 10
40.500000
 20
6.800000
  0
VERTEX
  8
FEATURES
 62
     0
  6
CONTINUOUS
 10
40.300000
 20
6.500000
  0
VERTEX
  8
FEATURES
 62
     0
  6
CONTINUOUS
 10
39.900000
 20
6.300000
  0
VERTEX
  8
FEATURES
 62
     0
  6
CONTINUOUS
 10
39.500000
 20
6.300000
  0
VERTEX
  8
FEATURES
 62
     0
  6
CONTINUOUS
 10
39.200000
 20
6.300000
  0
VERTEX
  8
FEATURES
 62
     0
  6
CONTINUOUS
 10
38.800000
 20
6.200000
  0
VERTEX
  8
FEATURES
 62
     0
  6
CONTINUOUS
 10
38.600000
 20
5.800000
  0
VERTEX
  8
FEATURES
 62
     0
  6
CONTINUOUS
 10
38.600000
 20
5.500000
  0
VERTEX
  8
FEATURES
 62
     0
  6
CONTINUOUS
 10
38.700000
 20
5.100000
  0
VERTEX
  8
FEATURES
 62
     0
  6
CONTINUOUS
 10
39.100000
 20
4.900000
  0
VERTEX
  8
FEATURES
 62
     0
  6
CONTINUOUS
 10
39.400000
 20
4.900000
  0
VERTEX
  8
FEATURES
 62
     0
  6
CONTINUOUS
 10
39.800000
 20
5.000000
  0
SEQEND
  8
FEATURES
  0
POLYLINE
  8
FEATURES
 62
     0
  6
CONTINUOUS
 66
     1
 40
0.100000
 41
0.100000
  0
VERTEX
  8
FEATURES
 62
     0
  6
CONTINUOUS
 10
37.600000
 20
2.800000
  0
VERTEX
  8
FEATURES
 62
     0
  6
CONTINUOUS
 10
38.000000
 20
3.000000
  0
VERTEX
  8
FEATURES
 62
     0
  6
CONTINUOUS
 10
38.400000
 20
3.000000
  0
VERTEX
  8
FEATURES
 62
     0
  6
CONTINUOUS
 10
38.700000
 20
2.800000
  0
VERTEX
  8
FEATURES
 62
     0
  6
CONTINUOUS
 10
38.900000
 20
2.500000
  0
VERTEX
  8
FEATURES
 62
     0
  6
CONTINUOUS
 10
38.900000
 20
2.100000
  0
VERTEX
  8
FEATURES
 62
     0
  6
CONTINUOUS
 10
38.800000
 20
2.000000
  0
SEQEND
  8
FEATURES
  0
POLYLINE
  8
FEATURES
 62
     0
  6
CONTINUOUS
 66
     1
 40
0.400000
 41
0.400000
  0
VERTEX
  8
FEATURES
 62
     0
  6
CONTINUOUS
 10
127.900000
 20
94.500000
  0
VERTEX
  8
FEATURES
 62
     0
  6
CONTINUOUS
 10
126.400000
 20
92.700000
  0
VERTEX
  8
FEATURES
 62
     0
  6
CONTINUOUS
 10
124.500000
 20
91.100000
  0
VERTEX
  8
FEATURES
 62
     0
  6
CONTINUOUS
 10
122.200000
 20
89.500000
  0
VERTEX
  8
FEATURES
 62
     0
  6
CONTINUOUS
 10
120.300000
 20
88.100000
  0
VERTEX
  8
FEATURES
 62
     0
  6
CONTINUOUS
 10
118.600000
 20
86.300000
  0
VERTEX
  8
FEATURES
 62
     0
  6
CONTINUOUS
 10
117.000000
 20
84.600000
  0
VERTEX
  8
FEATURES
 62
     0
  6
CONTINUOUS
 10
117.000000
 20
82.600000
  0
VERTEX
  8
FEATURES
 62
     0
  6
CONTINUOUS
 10
116.800000
 20
80.800000
  0
VERTEX
  8
FEATURES
 62
     0
  6
CONTINUOUS
 10
116.500000
 20
78.200000
  0
VERTEX
  8
FEATURES
 62
     0
  6
CONTINUOUS
 10
116.100000
 20
76.600000
  0
VERTEX
  8
FEATURES
 62
     0
  6
CONTINUOUS
 10
114.900000
 20
73.400000
  0
VERTEX
  8
FEATURES
 62
     0
  6
CONTINUOUS
 10
114.200000
 20
72.100000
  0
VERTEX
  8
FEATURES
 62
     0
  6
CONTINUOUS
 10
111.800000
 20
67.700000
  0
VERTEX
  8
FEATURES
 62
     0
  6
CONTINUOUS
 10
111.100000
 20
66.400000
  0
VERTEX
  8
FEATURES
 62
     0
  6
CONTINUOUS
 10
109.300000
 20
61.700000
  0
VERTEX
  8
FEATURES
 62
     0
  6
CONTINUOUS
 10
108.800000
 20
60.100000
  0
VERTEX
  8
FEATURES
 62
     0
  6
CONTINUOUS
 10
108.200000
 20
56.500000
  0
VERTEX
  8
FEATURES
 62
     0
  6
CONTINUOUS
 10
108.300000
 20
52.800000
  0
VERTEX
  8
FEATURES
 62
     0
  6
CONTINUOUS
 10
108.200000
 20
50.900000
  0
VERTEX
  8
FEATURES
 62
     0
  6
CONTINUOUS
 10
108.300000
 20
49.000000
  0
VERTEX
  8
FEATURES
 62
     0
  6
CONTINUOUS
 10
108.600000
 20
46.100000
  0
VERTEX
  8
FEATURES
 62
     0
  6
CONTINUOUS
 10
108.600000
 20
43.100000
  0
VERTEX
  8
FEATURES
 62
     0
  6
CONTINUOUS
 10
105.800000
 20
42.200000
  0
VERTEX
  8
FEATURES
 62
     0
  6
CONTINUOUS
 10
104.300000
 20
41.600000
  0
VERTEX
  8
FEATURES
 62
     0
  6
CONTINUOUS
 10
101.600000
 20
39.300000
  0
VERTEX
  8
FEATURES
 62
     0
  6
CONTINUOUS
 10
100.600000
 20
38.300000
  0
VERTEX
  8
FEATURES
 62
     0
  6
CONTINUOUS
 10
97.800000
 20
35.200000
  0
VERTEX
  8
FEATURES
 62
     0
  6
CONTINUOUS
 10
96.800000
 20
34.200000
  0
VERTEX
  8
FEATURES
 62
     0
  6
CONTINUOUS
 10
93.800000
 20
30.800000
  0
VERTEX
  8
FEATURES
 62
     0
  6
CONTINUOUS
 10
92.700000
 20
29.500000
  0
VERTEX
  8
FEATURES
 62
     0
  6
CONTINUOUS
 10
91.900000
 20
28.300000
  0
VERTEX
  8
FEATURES
 62
     0
  6
CONTINUOUS
 10
91.200000
 20
25.500000
  0
VERTEX
  8
FEATURES
 62
     0
  6
CONTINUOUS
 10
90.900000
 20
23.700000
  0
VERTEX
  8
FEATURES
 62
     0
  6
CONTINUOUS
 10
90.400000
 20
18.800000
  0
VERTEX
  8
FEATURES
 62
     0
  6
CONTINUOUS
 10
90.100000
 20
17.100000
  0
VERTEX
  8
FEATURES
 62
     0
  6
CONTINUOUS
 10
89.300000
 20
14.200000
  0
VERTEX
  8
FEATURES
 62
     0
  6
CONTINUOUS
 10
87.500000
 20
11.700000
  0
VERTEX
  8
FEATURES
 62
     0
  6
CONTINUOUS
 10
86.600000
 20
10.600000
  0
VERTEX
  8
FEATURES
 62
     0
  6
CONTINUOUS
 10
83.800000
 20
8.100000
  0
VERTEX
  8
FEATURES
 62
     0
  6
CONTINUOUS
 10
82.700000
 20
7.100000
  0
VERTEX
  8
FEATURES
 62
     0
  6
CONTINUOUS
 10
81.000000
 20
5.600000
  0
VERTEX
  8
FEATURES
 62
     0
  6
CONTINUOUS
 10
79.800000
 20
4.800000
  0
VERTEX
  8
FEATURES
 62
     0
  6
CONTINUOUS
 10
77.800000
 20
3.700000
  0
VERTEX
  8
FEATURES
 62
     0
  6
CONTINUOUS
 10
74.700000
 20
3.900000
  0
VERTEX
  8
FEATURES
 62
     0
  6
CONTINUOUS
 10
72.200000
 20
3.600000
  0
VERTEX
  8
FEATURES
 62
     0
  6
CONTINUOUS
 10
71.500000
 20
2.400000
  0
VERTEX
  8
FEATURES
 62
     0
  6
CONTINUOUS
 10
71.200000
 20
2.000000
  0
SEQEND
  8
FEATURES
  0
POLYLINE
  8
FEATURES
 62
     0
  6
CONTINUOUS
 66
     1
 40
0.100000
 41
0.100000
  0
VERTEX
  8
FEATURES
 62
     0
  6
CONTINUOUS
 10
128.400000
 20
98.600000
  0
VERTEX
  8
FEATURES
 62
     0
  6
CONTINUOUS
 10
128.600000
 20
99.400000
  0
VERTEX
  8
FEATURES
 62
     0
  6
CONTINUOUS
 10
129.100000
 20
99.900000
  0
VERTEX
  8
FEATURES
 62
     0
  6
CONTINUOUS
 10
129.900000
 20
100.100000
  0
VERTEX
  8
FEATURES
 62
     0
  6
CONTINUOUS
 10
130.600000
 20
99.900000
  0
VERTEX
  8
FEATURES
 62
     0
  6
CONTINUOUS
 10
131.200000
 20
99.400000
  0
VERTEX
  8
FEATURES
 62
     0
  6
CONTINUOUS
 10
131.400000
 20
98.600000
  0
VERTEX
  8
FEATURES
 62
     0
  6
CONTINUOUS
 10
131.200000
 20
97.900000
  0
VERTEX
  8
FEATURES
 62
     0
  6
CONTINUOUS
 10
130.600000
 20
97.300000
  0
VERTEX
  8
FEATURES
 62
     0
  6
CONTINUOUS
 10
129.900000
 20
97.100000
  0
VERTEX
  8
FEATURES
 62
     0
  6
CONTINUOUS
 10
129.100000
 20
97.300000
  0
VERTEX
  8
FEATURES
 62
     0
  6
CONTINUOUS
 10
128.600000
 20
97.900000
  0
VERTEX
  8
FEATURES
 62
     0
  6
CONTINUOUS
 10
128.400000
 20
98.600000
  0
SEQEND
  8
FEATURES
  0
POLYLINE
  8
FEATURES
 62
     0
  6
CONTINUOUS
 66
     1
 40
0.100000
 41
0.100000
  0
VERTEX
  8
FEATURES
 62
     0
  6
CONTINUOUS
 10
129.900000
 20
98.600000
  0
VERTEX
  8
FEATURES
 62
     0
  6
CONTINUOUS
 10
129.900000
 20
100.100000
  0
VERTEX
  8
FEATURES
 62
     0
  6
CONTINUOUS
 10
130.600000
 20
99.900000
  0
VERTEX
  8
FEATURES
 62
     0
  6
CONTINUOUS
 10
131.200000
 20
99.400000
  0
VERTEX
  8
FEATURES
 62
     0
  6
CONTINUOUS
 10
131.400000
 20
98.600000
  0
VERTEX
  8
FEATURES
 62
     0
  6
CONTINUOUS
 10
129.900000
 20
98.600000
  0
SEQEND
  8
FEATURES
  0
POLYLINE
  8
FEATURES
 62
     0
  6
CONTINUOUS
 66
     1
 40
0.100000
 41
0.100000
  0
VERTEX
  8
FEATURES
 62
     0
  6
CONTINUOUS
 10
129.900000
 20
98.600000
  0
VERTEX
  8
FEATURES
 62
     0
  6
CONTINUOUS
 10
129.900000
 20
97.100000
  0
VERTEX
  8
FEATURES
 62
     0
  6
CONTINUOUS
 10
129.100000
 20
97.300000
  0
VERTEX
  8
FEATURES
 62
     0
  6
CONTINUOUS
 10
128.600000
 20
97.900000
  0
VERTEX
  8
FEATURES
 62
     0
  6
CONTINUOUS
 10
128.400000
 20
98.600000
  0
VERTEX
  8
FEATURES
 62
     0
  6
CONTINUOUS
 10
129.900000
 20
98.600000
  0
SEQEND
  8
FEATURES
  0
POLYLINE
  8
FEATURES
 62
     0
  6
CONTINUOUS
 66
     1
 40
0.100000
 41
0.100000
  0
VERTEX
  8
FEATURES
 62
     0
  6
CONTINUOUS
 10
132.100000
 20
104.700000
  0
VERTEX
  8
FEATURES
 62
     0
  6
CONTINUOUS
 10
132.300000
 20
105.500000
  0
VERTEX
  8
FEATURES
 62
     0
  6
CONTINUOUS
 10
132.800000
 20
106.000000
  0
VERTEX
  8
FEATURES
 62
     0
  6
CONTINUOUS
 10
133.600000
 20
106.200000
  0
VERTEX
  8
FEATURES
 62
     0
  6
CONTINUOUS
 10
134.300000
 20
106.000000
  0
VERTEX
  8
FEATURES
 62
     0
  6
CONTINUOUS
 10
134.900000
 20
105.500000
  0
VERTEX
  8
FEATURES
 62
     0
  6
CONTINUOUS
 10
135.100000
 20
104.700000
  0
VERTEX
  8
FEATURES
 62
     0
  6
CONTINUOUS
 10
134.900000
 20
104.000000
  0
VERTEX
  8
FEATURES
 62
     0
  6
CONTINUOUS
 10
134.300000
 20
103.400000
  0
VERTEX
  8
FEATURES
 62
     0
  6
CONTINUOUS
 10
133.600000
 20
103.200000
  0
VERTEX
  8
FEATURES
 62
     0
  6
CONTINUOUS
 10
132.800000
 20
103.400000
  0
VERTEX
  8
FEATURES
 62
     0
  6
CONTINUOUS
 10
132.300000
 20
104.000000
  0
VERTEX
  8
FEATURES
 62
     0
  6
CONTINUOUS
 10
132.100000
 20
104.700000
  0
SEQEND
  8
FEATURES
  0
POLYLINE
  8
FEATURES
 62
     0
  6
CONTINUOUS
 66
     1
 40
0.100000
 41
0.100000
  0
VERTEX
  8
FEATURES
 62
     0
  6
CONTINUOUS
 10
133.600000
 20
104.700000
  0
VERTEX
  8
FEATURES
 62
     0
  6
CONTINUOUS
 10
133.600000
 20
106.200000
  0
VERTEX
  8
FEATURES
 62
     0
  6
CONTINUOUS
 10
134.300000
 20
106.000000
  0
VERTEX
  8
FEATURES
 62
     0
  6
CONTINUOUS
 10
134.900000
 20
105.500000
  0
VERTEX
  8
FEATURES
 62
     0
  6
CONTINUOUS
 10
135.100000
 20
104.700000
  0
VERTEX
  8
FEATURES
 62
     0
  6
CONTINUOUS
 10
133.600000
 20
104.700000
  0
SEQEND
  8
FEATURES
  0
POLYLINE
  8
FEATURES
 62
     0
  6
CONTINUOUS
 66
     1
 40
0.100000
 41
0.100000
  0
VERTEX
  8
FEATURES
 62
     0
  6
CONTINUOUS
 10
133.600000
 20
104.700000
  0
VERTEX
  8
FEATURES
 62
     0
  6
CONTINUOUS
 10
133.600000
 20
103.200000
  0
VERTEX
  8
FEATURES
 62
     0
  6
CONTINUOUS
 10
132.800000
 20
103.400000
  0
VERTEX
  8
FEATURES
 62
     0
  6
CONTINUOUS
 10
132.300000
 20
104.000000
  0
VERTEX
  8
FEATURES
 62
     0
  6
CONTINUOUS
 10
132.100000
 20
104.700000
  0
VERTEX
  8
FEATURES
 62
     0
  6
CONTINUOUS
 10
133.600000
 20
104.700000
  0
SEQEND
  8
FEATURES
  0
POLYLINE
  8
FEATURES
 62
     0
  6
CONTINUOUS
 66
     1
 40
0.100000
 41
0.100000
  0
VERTEX
  8
FEATURES
 62
     0
  6
CONTINUOUS
 10
137.400000
 20
109.900000
  0
VERTEX
  8
FEATURES
 62
     0
  6
CONTINUOUS
 10
137.600000
 20
110.700000
  0
VERTEX
  8
FEATURES
 62
     0
  6
CONTINUOUS
 10
138.100000
 20
111.200000
  0
VERTEX
  8
FEATURES
 62
     0
  6
CONTINUOUS
 10
138.900000
 20
111.400000
  0
VERTEX
  8
FEATURES
 62
     0
  6
CONTINUOUS
 10
139.600000
 20
111.200000
  0
VERTEX
  8
FEATURES
 62
     0
  6
CONTINUOUS
 10
140.200000
 20
110.700000
  0
VERTEX
  8
FEATURES
 62
     0
  6
CONTINUOUS
 10
140.400000
 20
109.900000
  0
VERTEX
  8
FEATURES
 62
     0
  6
CONTINUOUS
 10
140.200000
 20
109.200000
  0
VERTEX
  8
FEATURES
 62
     0
  6
CONTINUOUS
 10
139.600000
 20
108.600000
  0
VERTEX
  8
FEATURES
 62
     0
  6
CONTINUOUS
 10
138.900000
 20
108.400000
  0
VERTEX
  8
FEATURES
 62
     0
  6
CONTINUOUS
 10
138.100000
 20
108.600000
  0
VERTEX
  8
FEATURES
 62
     0
  6
CONTINUOUS
 10
137.600000
 20
109.200000
  0
VERTEX
  8
FEATURES
 62
     0
  6
CONTINUOUS
 10
137.400000
 20
109.900000
  0
SEQEND
  8
FEATURES
  0
POLYLINE
  8
FEATURES
 62
     0
  6
CONTINUOUS
 66
     1
 40
0.100000
 41
0.100000
  0
VERTEX
  8
FEATURES
 62
     0
  6
CONTINUOUS
 10
138.900000
 20
109.900000
  0
VERTEX
  8
FEATURES
 62
     0
  6
CONTINUOUS
 10
138.900000
 20
111.400000
  0
VERTEX
  8
FEATURES
 62
     0
  6
CONTINUOUS
 10
139.600000
 20
111.200000
  0
VERTEX
  8
FEATURES
 62
     0
  6
CONTINUOUS
 10
140.200000
 20
110.700000
  0
VERTEX
  8
FEATURES
 62
     0
  6
CONTINUOUS
 10
140.400000
 20
109.900000
  0
VERTEX
  8
FEATURES
 62
     0
  6
CONTINUOUS
 10
138.900000
 20
109.900000
  0
SEQEND
  8
FEATURES
  0
POLYLINE
  8
FEATURES
 62
     0
  6
CONTINUOUS
 66
     1
 40
0.100000
 41
0.100000
  0
VERTEX
  8
FEATURES
 62
     0
  6
CONTINUOUS
 10
138.900000
 20
109.900000
  0
VERTEX
  8
FEATURES
 62
     0
  6
CONTINUOUS
 10
138.900000
 20
108.400000
  0
VERTEX
  8
FEATURES
 62
     0
  6
CONTINUOUS
 10
138.100000
 20
108.600000
  0
VERTEX
  8
FEATURES
 62
     0
  6
CONTINUOUS
 10
137.600000
 20
109.200000
  0
VERTEX
  8
FEATURES
 62
     0
  6
CONTINUOUS
 10
137.400000
 20
109.900000
  0
VERTEX
  8
FEATURES
 62
     0
  6
CONTINUOUS
 10
138.900000
 20
109.900000
  0
SEQEND
  8
FEATURES
  0
POLYLINE
  8
FEATURES
 62
     0
  6
CONTINUOUS
 66
     1
 40
0.100000
 41
0.100000
  0
VERTEX
  8
FEATURES
 62
     0
  6
CONTINUOUS
 10
143.900000
 20
115.100000
  0
VERTEX
  8
FEATURES
 62
     0
  6
CONTINUOUS
 10
144.100000
 20
115.900000
  0
VERTEX
  8
FEATURES
 62
     0
  6
CONTINUOUS
 10
144.600000
 20
116.400000
  0
VERTEX
  8
FEATURES
 62
     0
  6
CONTINUOUS
 10
145.400000
 20
116.600000
  0
VERTEX
  8
FEATURES
 62
     0
  6
CONTINUOUS
 10
146.100000
 20
116.400000
  0
VERTEX
  8
FEATURES
 62
     0
  6
CONTINUOUS
 10
146.700000
 20
115.900000
  0
VERTEX
  8
FEATURES
 62
     0
  6
CONTINUOUS
 10
146.900000
 20
115.100000
  0
VERTEX
  8
FEATURES
 62
     0
  6
CONTINUOUS
 10
146.700000
 20
114.400000
  0
VERTEX
  8
FEATURES
 62
     0
  6
CONTINUOUS
 10
146.100000
 20
113.800000
  0
VERTEX
  8
FEATURES
 62
     0
  6
CONTINUOUS
 10
145.400000
 20
113.600000
  0
VERTEX
  8
FEATURES
 62
     0
  6
CONTINUOUS
 10
144.600000
 20
113.800000
  0
VERTEX
  8
FEATURES
 62
     0
  6
CONTINUOUS
 10
144.100000
 20
114.400000
  0
VERTEX
  8
FEATURES
 62
     0
  6
CONTINUOUS
 10
143.900000
 20
115.100000
  0
SEQEND
  8
FEATURES
  0
POLYLINE
  8
FEATURES
 62
     0
  6
CONTINUOUS
 66
     1
 40
0.100000
 41
0.100000
  0
VERTEX
  8
FEATURES
 62
     0
  6
CONTINUOUS
 10
145.400000
 20
115.100000
  0
VERTEX
  8
FEATURES
 62
     0
  6
CONTINUOUS
 10
145.400000
 20
116.600000
  0
VERTEX
  8
FEATURES
 62
     0
  6
CONTINUOUS
 10
146.100000
 20
116.400000
  0
VERTEX
  8
FEATURES
 62
     0
  6
CONTINUOUS
 10
146.700000
 20
115.900000
  0
VERTEX
  8
FEATURES
 62
     0
  6
CONTINUOUS
 10
146.900000
 20
115.100000
  0
VERTEX
  8
FEATURES
 62
     0
  6
CONTINUOUS
 10
145.400000
 20
115.100000
  0
SEQEND
  8
FEATURES
  0
POLYLINE
  8
FEATURES
 62
     0
  6
CONTINUOUS
 66
     1
 40
0.100000
 41
0.100000
  0
VERTEX
  8
FEATURES
 62
     0
  6
CONTINUOUS
 10
145.400000
 20
115.100000
  0
VERTEX
  8
FEATURES
 62
     0
  6
CONTINUOUS
 10
145.400000
 20
113.600000
  0
VERTEX
  8
FEATURES
 62
     0
  6
CONTINUOUS
 10
144.600000
 20
113.800000
  0
VERTEX
  8
FEATURES
 62
     0
  6
CONTINUOUS
 10
144.100000
 20
114.400000
  0
VERTEX
  8
FEATURES
 62
     0
  6
CONTINUOUS
 10
143.900000
 20
115.100000
  0
VERTEX
  8
FEATURES
 62
     0
  6
CONTINUOUS
 10
145.400000
 20
115.100000
  0
SEQEND
  8
FEATURES
  0
POLYLINE
  8
FEATURES
 62
     0
  6
CONTINUOUS
 66
     1
 40
0.100000
 41
0.100000
  0
VERTEX
  8
FEATURES
 62
     0
  6
CONTINUOUS
 10
147.400000
 20
120.300000
  0
VERTEX
  8
FEATURES
 62
     0
  6
CONTINUOUS
 10
147.600000
 20
121.100000
  0
VERTEX
  8
FEATURES
 62
     0
  6
CONTINUOUS
 10
148.100000
 20
121.600000
  0
VERTEX
  8
FEATURES
 62
     0
  6
CONTINUOUS
 10
148.900000
 20
121.800000
  0
VERTEX
  8
FEATURES
 62
     0
  6
CONTINUOUS
 10
149.600000
 20
121.600000
  0
VERTEX
  8
FEATURES
 62
     0
  6
CONTINUOUS
 10
150.200000
 20
121.100000
  0
VERTEX
  8
FEATURES
 62
     0
  6
CONTINUOUS
 10
150.400000
 20
120.300000
  0
VERTEX
  8
FEATURES
 62
     0
  6
CONTINUOUS
 10
150.200000
 20
119.600000
  0
VERTEX
  8
FEATURES
 62
     0
  6
CONTINUOUS
 10
149.600000
 20
119.000000
  0
VERTEX
  8
FEATURES
 62
     0
  6
CONTINUOUS
 10
148.900000
 20
118.800000
  0
VERTEX
  8
FEATURES
 62
     0
  6
CONTINUOUS
 10
148.100000
 20
119.000000
  0
VERTEX
  8
FEATURES
 62
     0
  6
CONTINUOUS
 10
147.600000
 20
119.600000
  0
VERTEX
  8
FEATURES
 62
     0
  6
CONTINUOUS
 10
147.400000
 20
120.300000
  0
SEQEND
  8
FEATURES
  0
POLYLINE
  8
FEATURES
 62
     0
  6
CONTINUOUS
 66
     1
 40
0.100000
 41
0.100000
  0
VERTEX
  8
FEATURES
 62
     0
  6
CONTINUOUS
 10
148.900000
 20
120.300000
  0
VERTEX
  8
FEATURES
 62
     0
  6
CONTINUOUS
 10
148.900000
 20
121.800000
  0
VERTEX
  8
FEATURES
 62
     0
  6
CONTINUOUS
 10
149.600000
 20
121.600000
  0
VERTEX
  8
FEATURES
 62
     0
  6
CONTINUOUS
 10
150.200000
 20
121.100000
  0
VERTEX
  8
FEATURES
 62
     0
  6
CONTINUOUS
 10
150.400000
 20
120.300000
  0
VERTEX
  8
FEATURES
 62
     0
  6
CONTINUOUS
 10
148.900000
 20
120.300000
  0
SEQEND
  8
FEATURES
  0
POLYLINE
  8
FEATURES
 62
     0
  6
CONTINUOUS
 66
     1
 40
0.100000
 41
0.100000
  0
VERTEX
  8
FEATURES
 62
     0
  6
CONTINUOUS
 10
148.900000
 20
120.300000
  0
VERTEX
  8
FEATURES
 62
     0
  6
CONTINUOUS
 10
148.900000
 20
118.800000
  0
VERTEX
  8
FEATURES
 62
     0
  6
CONTINUOUS
 10
148.100000
 20
119.000000
  0
VERTEX
  8
FEATURES
 62
     0
  6
CONTINUOUS
 10
147.600000
 20
119.600000
  0
VERTEX
  8
FEATURES
 62
     0
  6
CONTINUOUS
 10
147.400000
 20
120.300000
  0
VERTEX
  8
FEATURES
 62
     0
  6
CONTINUOUS
 10
148.900000
 20
120.300000
  0
SEQEND
  8
FEATURES
  0
POLYLINE
  8
FEATURES
 62
     1
  6
CONTINUOUS
 66
     1
 40
0.100000
 41
0.100000
  0
VERTEX
  8
FEATURES
 62
     1
  6
CONTINUOUS
 10
129.500000
 20
129.400000
  0
VERTEX
  8
FEATURES
 62
     1
  6
CONTINUOUS
 10
129.700000
 20
129.400000
  0
VERTEX
  8
FEATURES
 62
     1
  6
CONTINUOUS
 10
129.500000
 20
132.900000
  0
VERTEX
  8
FEATURES
 62
     1
  6
CONTINUOUS
 10
128.000000
 20
133.600000
  0
VERTEX
  8
FEATURES
 62
     1
  6
CONTINUOUS
 10
126.500000
 20
132.000000
  0
VERTEX
  8
FEATURES
 62
     1
  6
CONTINUOUS
 10
125.400000
 20
130.100000
  0
VERTEX
  8
FEATURES
 62
     1
  6
CONTINUOUS
 10
125.000000
 20
128.400000
  0
VERTEX
  8
FEATURES
 62
     1
  6
CONTINUOUS
 10
124.600000
 20
126.700000
  0
VERTEX
  8
FEATURES
 62
     1
  6
CONTINUOUS
 10
125.600000
 20
125.500000
  0
VERTEX
  8
FEATURES
 62
     1
  6
CONTINUOUS
 10
127.200000
 20
125.900000
  0
VERTEX
  8
FEATURES
 62
     1
  6
CONTINUOUS
 10
129.700000
 20
129.400000
  0
VERTEX
  8
FEATURES
 62
     1
  6
CONTINUOUS
 10
129.500000
 20
129.400000
  0
SEQEND
  8
FEATURES
  0
POLYLINE
  8
FEATURES
 62
     1
  6
CONTINUOUS
 66
     1
 40
0.100000
 41
0.100000
  0
VERTEX
  8
FEATURES
 62
     1
  6
CONTINUOUS
 10
38.500000
 20
79.700000
  0
VERTEX
  8
FEATURES
 62
     1
  6
CONTINUOUS
 10
37.400000
 20
79.000000
  0
VERTEX
  8
FEATURES
 62
     1
  6
CONTINUOUS
 10
36.300000
 20
76.900000
  0
VERTEX
  8
FEATURES
 62
     1
  6
CONTINUOUS
 10
34.700000
 20
73.900000
  0
VERTEX
  8
FEATURES
 62
     1
  6
CONTINUOUS
 10
33.900000
 20
71.800000
  0
VERTEX
  8
FEATURES
 62
     1
  6
CONTINUOUS
 10
32.600000
 20
68.900000
  0
VERTEX
  8
FEATURES
 62
     1
  6
CONTINUOUS
 10
31.400000
 20
62.100000
  0
VERTEX
  8
FEATURES
 62
     1
  6
CONTINUOUS
 10
32.400000
 20
60.400000
  0
VERTEX
  8
FEATURES
 62
     1
  6
CONTINUOUS
 10
34.500000
 20
61.100000
  0
VERTEX
  8
FEATURES
 62
     1
  6
CONTINUOUS
 10
35.700000
 20
62.400000
  0
VERTEX
  8
FEATURES
 62
     1
  6
CONTINUOUS
 10
37.100000
 20
64.100000
  0
VERTEX
  8
FEATURES
 62
     1
  6
CONTINUOUS
 10
38.300000
 20
66.500000
  0
VERTEX
  8
FEATURES
 62
     1
  6
CONTINUOUS
 10
39.500000
 20
70.000000
  0
VERTEX
  8
FEATURES
 62
     1
  6
CONTINUOUS
 10
39.700000
 20
74.000000
  0
VERTEX
  8
FEATURES
 62
     1
  6
CONTINUOUS
 10
39.900000
 20
77.500000
  0
VERTEX
  8
FEATURES
 62
     1
  6
CONTINUOUS
 10
39.000000
 20
79.200000
  0
VERTEX
  8
FEATURES
 62
     1
  6
CONTINUOUS
 10
38.500000
 20
79.700000
  0
SEQEND
  8
FEATURES
  0
POLYLINE
  8
FEATURES
 62
     1
  6
CONTINUOUS
 66
     1
 40
0.100000
 41
0.100000
  0
VERTEX
  8
FEATURES
 62
     1
  6
CONTINUOUS
 10
95.500000
 20
114.500000
  0
VERTEX
  8
FEATURES
 62
     1
  6
CONTINUOUS
 10
94.600000
 20
116.200000
  0
VERTEX
  8
FEATURES
 62
     1
  6
CONTINUOUS
 10
93.100000
 20
117.500000
  0
VERTEX
  8
FEATURES
 62
     1
  6
CONTINUOUS
 10
90.100000
 20
116.700000
  0
VERTEX
  8
FEATURES
 62
     1
  6
CONTINUOUS
 10
90.400000
 20
112.900000
  0
VERTEX
  8
FEATURES
 62
     1
  6
CONTINUOUS
 10
92.700000
 20
112.200000
  0
VERTEX
  8
FEATURES
 62
     1
  6
CONTINUOUS
 10
95.400000
 20
114.100000
  0
VERTEX
  8
FEATURES
 62
     1
  6
CONTINUOUS
 10
95.500000
 20
114.500000
  0
SEQEND
  8
FEATURES
  0
POLYLINE
  8
FEATURES
 62
     1
  6
CONTINUOUS
 66
     1
 40
0.100000
 41
0.100000
  0
VERTEX
  8
FEATURES
 62
     1
  6
CONTINUOUS
 10
81.200000
 20
143.400000
  0
VERTEX
  8
FEATURES
 62
     1
  6
CONTINUOUS
 10
82.400000
 20
140.200000
  0
VERTEX
  8
FEATURES
 62
     1
  6
CONTINUOUS
 10
85.600000
 20
137.400000
  0
VERTEX
  8
FEATURES
 62
     1
  6
CONTINUOUS
 10
88.100000
 20
134.200000
  0
VERTEX
  8
FEATURES
 62
     1
  6
CONTINUOUS
 10
90.000000
 20
132.400000
  0
VERTEX
  8
FEATURES
 62
     1
  6
CONTINUOUS
 10
91.400000
 20
131.500000
  0
VERTEX
  8
FEATURES
 62
     1
  6
CONTINUOUS
 10
93.500000
 20
132.800000
  0
VERTEX
  8
FEATURES
 62
     1
  6
CONTINUOUS
 10
92.600000
 20
134.300000
  0
VERTEX
  8
FEATURES
 62
     1
  6
CONTINUOUS
 10
88.400000
 20
139.300000
  0
VERTEX
  8
FEATURES
 62
     1
  6
CONTINUOUS
 10
86.600000
 20
142.100000
  0
VERTEX
  8
FEATURES
 62
     1
  6
CONTINUOUS
 10
84.200000
 20
143.600000
  0
VERTEX
  8
FEATURES
 62
     1
  6
CONTINUOUS
 10
82.300000
 20
143.900000
  0
VERTEX
  8
FEATURES
 62
     1
  6
CONTINUOUS
 10
81.200000
 20
143.400000
  0
SEQEND
  8
FEATURES
  0
POLYLINE
  8
FEATURES
 62
     1
  6
CONTINUOUS
 66
     1
 40
0.100000
 41
0.100000
  0
VERTEX
  8
FEATURES
 62
     1
  6
CONTINUOUS
 10
30.800000
 20
145.100000
  0
VERTEX
  8
FEATURES
 62
     1
  6
CONTINUOUS
 10
32.000000
 20
142.600000
  0
VERTEX
  8
FEATURES
 62
     1
  6
CONTINUOUS
 10
34.000000
 20
142.100000
  0
VERTEX
  8
FEATURES
 62
     1
  6
CONTINUOUS
 10
35.600000
 20
143.700000
  0
VERTEX
  8
FEATURES
 62
     1
  6
CONTINUOUS
 10
33.900000
 20
145.500000
  0
VERTEX
  8
FEATURES
 62
     1
  6
CONTINUOUS
 10
31.700000
 20
145.700000
  0
VERTEX
  8
FEATURES
 62
     1
  6
CONTINUOUS
 10
30.800000
 20
145.100000
  0
SEQEND
  8
FEATURES
  0
POLYLINE
  8
FEATURES
 62
     1
  6
CONTINUOUS
 66
     1
 40
0.100000
 41
0.100000
  0
VERTEX
  8
FEATURES
 62
     1
  6
CONTINUOUS
 10
73.400000
 20
83.800000
  0
VERTEX
  8
FEATURES
 62
     1
  6
CONTINUOUS
 10
70.800000
 20
81.800000
  0
VERTEX
  8
FEATURES
 62
     1
  6
CONTINUOUS
 10
68.900000
 20
80.900000
  0
VERTEX
  8
FEATURES
 62
     1
  6
CONTINUOUS
 10
68.300000
 20
79.400000
  0
VERTEX
  8
FEATURES
 62
     1
  6
CONTINUOUS
 10
70.000000
 20
78.100000
  0
VERTEX
  8
FEATURES
 62
     1
  6
CONTINUOUS
 10
71.700000
 20
79.300000
  0
VERTEX
  8
FEATURES
 62
     1
  6
CONTINUOUS
 10
72.700000
 20
80.700000
  0
VERTEX
  8
FEATURES
 62
     1
  6
CONTINUOUS
 10
73.400000
 20
82.300000
  0
VERTEX
  8
FEATURES
 62
     1
  6
CONTINUOUS
 10
73.000000
 20
84.000000
  0
VERTEX
  8
FEATURES
 62
     1
  6
CONTINUOUS
 10
73.400000
 20
83.800000
  0
SEQEND
  8
FEATURES
  0
POLYLINE
  8
FEATURES
 62
     5
  6
CONTINUOUS
 66
     1
 40
0.100000
 41
0.100000
  0
VERTEX
  8
FEATURES
 62
     5
  6
CONTINUOUS
 10
92.000000
 20
11.800000
  0
VERTEX
  8
FEATURES
 62
     5
  6
CONTINUOUS
 10
90.400000
 20
11.300000
  0
VERTEX
  8
FEATURES
 62
     5
  6
CONTINUOUS
 10
89.500000
 20
10.100000
  0
VERTEX
  8
FEATURES
 62
     5
  6
CONTINUOUS
 10
91.000000
 20
8.700000
  0
VERTEX
  8
FEATURES
 62
     5
  6
CONTINUOUS
 10
92.300000
 20
9.500000
  0
VERTEX
  8
FEATURES
 62
     5
  6
CONTINUOUS
 10
92.000000
 20
11.800000
  0
SEQEND
  8
FEATURES
  0
POLYLINE
  8
FEATURES
 62
     5
  6
CONTINUOUS
 66
     1
 40
0.100000
 41
0.100000
  0
VERTEX
  8
FEATURES
 62
     5
  6
CONTINUOUS
 10
106.600000
 20
32.000000
  0
VERTEX
  8
FEATURES
 62
     5
  6
CONTINUOUS
 10
104.700000
 20
30.800000
  0
VERTEX
  8
FEATURES
 62
     5
  6
CONTINUOUS
 10
105.600000
 20
29.400000
  0
VERTEX
  8
FEATURES
 62
     5
  6
CONTINUOUS
 10
107.100000
 20
30.100000
  0
VERTEX
  8
FEATURES
 62
     5
  6
CONTINUOUS
 10
106.600000
 20
32.000000
  0
SEQEND
  8
FEATURES
  0
POLYLINE
  8
FEATURES
 62
     5
  6
CONTINUOUS
 66
     1
 40
0.100000
 41
0.100000
  0
VERTEX
  8
FEATURES
 62
     5
  6
CONTINUOUS
 10
112.800000
 20
41.700000
  0
VERTEX
  8
FEATURES
 62
     5
  6
CONTINUOUS
 10
110.200000
 20
41.200000
  0
VERTEX
  8
FEATURES
 62
     5
  6
CONTINUOUS
 10
108.000000
 20
40.300000
  0
VERTEX
  8
FEATURES
 62
     5
  6
CONTINUOUS
 10
106.100000
 20
39.300000
  0
VERTEX
  8
FEATURES
 62
     5
  6
CONTINUOUS
 10
107.200000
 20
38.200000
  0
VERTEX
  8
FEATURES
 62
     5
  6
CONTINUOUS
 10
109.600000
 20
38.800000
  0
VERTEX
  8
FEATURES
 62
     5
  6
CONTINUOUS
 10
111.600000
 20
39.400000
  0
VERTEX
  8
FEATURES
 62
     5
  6
CONTINUOUS
 10
112.800000
 20
40.800000
  0
VERTEX
  8
FEATURES
 62
     5
  6
CONTINUOUS
 10
112.800000
 20
41.700000
  0
SEQEND
  8
FEATURES
  0
POLYLINE
  8
FEATURES
 62
     5
  6
CONTINUOUS
 66
     1
 40
0.100000
 41
0.100000
  0
VERTEX
  8
FEATURES
 62
     5
  6
CONTINUOUS
 10
124.600000
 20
39.100000
  0
VERTEX
  8
FEATURES
 62
     5
  6
CONTINUOUS
 10
123.100000
 20
39.800000
  0
VERTEX
  8
FEATURES
 62
     5
  6
CONTINUOUS
 10
121.300000
 20
38.400000
  0
VERTEX
  8
FEATURES
 62
     5
  6
CONTINUOUS
 10
122.300000
 20
37.000000
  0
VERTEX
  8
FEATURES
 62
     5
  6
CONTINUOUS
 10
124.600000
 20
38.200000
  0
VERTEX
  8
FEATURES
 62
     5
  6
CONTINUOUS
 10
124.600000
 20
39.100000
  0
SEQEND
  8
FEATURES
  0
POLYLINE
  8
FEATURES
 62
     5
  6
CONTINUOUS
 66
     1
 40
0.100000
 41
0.100000
  0
VERTEX
  8
FEATURES
 62
     5
  6
CONTINUOUS
 10
111.200000
 20
49.800000
  0
VERTEX
  8
FEATURES
 62
     5
  6
CONTINUOUS
 10
110.100000
 20
48.700000
  0
VERTEX
  8
FEATURES
 62
     5
  6
CONTINUOUS
 10
109.600000
 20
46.600000
  0
VERTEX
  8
FEATURES
 62
     5
  6
CONTINUOUS
 10
110.000000
 20
44.500000
  0
VERTEX
  8
FEATURES
 62
     5
  6
CONTINUOUS
 10
111.400000
 20
45.400000
  0
VERTEX
  8
FEATURES
 62
     5
  6
CONTINUOUS
 10
111.600000
 20
47.800000
  0
VERTEX
  8
FEATURES
 62
     5
  6
CONTINUOUS
 10
111.200000
 20
49.800000
  0
SEQEND
  8
FEATURES
  0
POLYLINE
  8
FEATURES
 62
     5
  6
CONTINUOUS
 66
     1
 40
0.100000
 41
0.100000
  0
VERTEX
  8
FEATURES
 62
     5
  6
CONTINUOUS
 10
137.600000
 20
37.800000
  0
VERTEX
  8
FEATURES
 62
     5
  6
CONTINUOUS
 10
136.000000
 20
36.200000
  0
VERTEX
  8
FEATURES
 62
     5
  6
CONTINUOUS
 10
134.200000
 20
34.200000
  0
VERTEX
  8
FEATURES
 62
     5
  6
CONTINUOUS
 10
133.700000
 20
32.700000
  0
VERTEX
  8
FEATURES
 62
     5
  6
CONTINUOUS
 10
134.200000
 20
31.200000
  0
VERTEX
  8
FEATURES
 62
     5
  6
CONTINUOUS
 10
135.900000
 20
30.100000
  0
VERTEX
  8
FEATURES
 62
     5
  6
CONTINUOUS
 10
137.200000
 20
31.100000
  0
VERTEX
  8
FEATURES
 62
     5
  6
CONTINUOUS
 10
136.900000
 20
34.300000
  0
VERTEX
  8
FEATURES
 62
     5
  6
CONTINUOUS
 10
138.000000
 20
36.300000
  0
VERTEX
  8
FEATURES
 62
     5
  6
CONTINUOUS
 10
137.600000
 20
37.800000
  0
SEQEND
  8
FEATURES
  0
POLYLINE
  8
FEATURES
 62
     5
  6
CONTINUOUS
 66
     1
 40
0.100000
 41
0.100000
  0
VERTEX
  8
FEATURES
 62
     5
  6
CONTINUOUS
 10
126.100000
 20
66.800000
  0
VERTEX
  8
FEATURES
 62
     5
  6
CONTINUOUS
 10
123.500000
 20
65.800000
  0
VERTEX
  8
FEATURES
 62
     5
  6
CONTINUOUS
 10
122.800000
 20
64.100000
  0
VERTEX
  8
FEATURES
 62
     5
  6
CONTINUOUS
 10
124.100000
 20
62.400000
  0
VERTEX
  8
FEATURES
 62
     5
  6
CONTINUOUS
 10
125.200000
 20
64.200000
  0
VERTEX
  8
FEATURES
 62
     5
  6
CONTINUOUS
 10
125.900000
 20
66.200000
  0
VERTEX
  8
FEATURES
 62
     5
  6
CONTINUOUS
 10
126.100000
 20
66.800000
  0
SEQEND
  8
FEATURES
  0
POLYLINE
  8
FEATURES
 62
     5
  6
CONTINUOUS
 66
     1
 40
0.100000
 41
0.100000
  0
VERTEX
  8
FEATURES
 62
     5
  6
CONTINUOUS
 10
116.100000
 20
69.000000
  0
VERTEX
  8
FEATURES
 62
     5
  6
CONTINUOUS
 10
115.100000
 20
66.900000
  0
VERTEX
  8
FEATURES
 62
     5
  6
CONTINUOUS
 10
114.700000
 20
65.300000
  0
VERTEX
  8
FEATURES
 62
     5
  6
CONTINUOUS
 10
114.000000
 20
64.000000
  0
VERTEX
  8
FEATURES
 62
     5
  6
CONTINUOUS
 10
112.800000
 20
62.400000
  0
VERTEX
  8
FEATURES
 62
     5
  6
CONTINUOUS
 10
111.200000
 20
60.600000
  0
VERTEX
  8
FEATURES
 62
     5
  6
CONTINUOUS
 10
112.500000
 20
59.200000
  0
VERTEX
  8
FEATURES
 62
     5
  6
CONTINUOUS
 10
113.900000
 20
60.300000
  0
VERTEX
  8
FEATURES
 62
     5
  6
CONTINUOUS
 10
114.800000
 20
61.400000
  0
VERTEX
  8
FEATURES
 62
     5
  6
CONTINUOUS
 10
116.000000
 20
63.300000
  0
VERTEX
  8
FEATURES
 62
     5
  6
CONTINUOUS
 10
116.600000
 20
64.800000
  0
VERTEX
  8
FEATURES
 62
     5
  6
CONTINUOUS
 10
117.100000
 20
67.500000
  0
VERTEX
  8
FEATURES
 62
     5
  6
CONTINUOUS
 10
116.100000
 20
69.000000
  0
SEQEND
  8
FEATURES
  0
POLYLINE
  8
FEATURES
 62
     5
  6
CONTINUOUS
 66
     1
 40
0.100000
 41
0.100000
  0
VERTEX
  8
FEATURES
 62
     5
  6
CONTINUOUS
 10
124.700000
 20
74.000000
  0
VERTEX
  8
FEATURES
 62
     5
  6
CONTINUOUS
 10
122.100000
 20
73.800000
  0
VERTEX
  8
FEATURES
 62
     5
  6
CONTINUOUS
 10
119.400000
 20
73.500000
  0
VERTEX
  8
FEATURES
 62
     5
  6
CONTINUOUS
 10
117.400000
 20
73.100000
  0
VERTEX
  8
FEATURES
 62
     5
  6
CONTINUOUS
 10
116.200000
 20
71.800000
  0
VERTEX
  8
FEATURES
 62
     5
  6
CONTINUOUS
 10
117.200000
 20
70.400000
  0
VERTEX
  8
FEATURES
 62
     5
  6
CONTINUOUS
 10
120.100000
 20
70.900000
  0
VERTEX
  8
FEATURES
 62
     5
  6
CONTINUOUS
 10
122.400000
 20
72.000000
  0
VERTEX
  8
FEATURES
 62
     5
  6
CONTINUOUS
 10
124.000000
 20
72.900000
  0
VERTEX
  8
FEATURES
 62
     5
  6
CONTINUOUS
 10
124.700000
 20
74.000000
  0
SEQEND
  8
FEATURES
  0
POLYLINE
  8
FEATURES
 62
     5
  6
CONTINUOUS
 66
     1
 40
0.100000
 41
0.100000
  0
VERTEX
  8
FEATURES
 62
     5
  6
CONTINUOUS
 10
142.400000
 20
79.600000
  0
VERTEX
  8
FEATURES
 62
     5
  6
CONTINUOUS
 10
140.500000
 20
79.700000
  0
VERTEX
  8
FEATURES
 62
     5
  6
CONTINUOUS
 10
138.300000
 20
79.300000
  0
VERTEX
  8
FEATURES
 62
     5
  6
CONTINUOUS
 10
136.200000
 20
78.000000
  0
VERTEX
  8
FEATURES
 62
     5
  6
CONTINUOUS
 10
135.600000
 20
76.100000
  0
VERTEX
  8
FEATURES
 62
     5
  6
CONTINUOUS
 10
134.000000
 20
75.100000
  0
VERTEX
  8
FEATURES
 62
     5
  6
CONTINUOUS
 10
132.900000
 20
74.300000
  0
VERTEX
  8
FEATURES
 62
     5
  6
CONTINUOUS
 10
131.400000
 20
73.500000
  0
VERTEX
  8
FEATURES
 62
     5
  6
CONTINUOUS
 10
129.200000
 20
72.500000
  0
VERTEX
  8
FEATURES
 62
     5
  6
CONTINUOUS
 10
127.500000
 20
70.600000
  0
VERTEX
  8
FEATURES
 62
     5
  6
CONTINUOUS
 10
128.100000
 20
68.800000
  0
VERTEX
  8
FEATURES
 62
     5
  6
CONTINUOUS
 10
129.700000
 20
68.500000
  0
VERTEX
  8
FEATURES
 62
     5
  6
CONTINUOUS
 10
132.400000
 20
69.500000
  0
VERTEX
  8
FEATURES
 62
     5
  6
CONTINUOUS
 10
133.700000
 20
71.300000
  0
VERTEX
  8
FEATURES
 62
     5
  6
CONTINUOUS
 10
135.000000
 20
72.400000
  0
VERTEX
  8
FEATURES
 62
     5
  6
CONTINUOUS
 10
136.700000
 20
73.600000
  0
VERTEX
  8
FEATURES
 62
     5
  6
CONTINUOUS
 10
138.100000
 20
75.000000
  0
VERTEX
  8
FEATURES
 62
     5
  6
CONTINUOUS
 10
139.900000
 20
76.100000
  0
VERTEX
  8
FEATURES
 62
     5
  6
CONTINUOUS
 10
141.200000
 20
77.100000
  0
VERTEX
  8
FEATURES
 62
     5
  6
CONTINUOUS
 10
142.500000
 20
78.700000
  0
VERTEX
  8
FEATURES
 62
     5
  6
CONTINUOUS
 10
142.400000
 20
79.600000
  0
SEQEND
  8
FEATURES
  0
POLYLINE
  8
FEATURES
 62
     5
  6
CONTINUOUS
 66
     1
 40
0.100000
 41
0.100000
  0
VERTEX
  8
FEATURES
 62
     5
  6
CONTINUOUS
 10
135.300000
 20
89.900000
  0
VERTEX
  8
FEATURES
 62
     5
  6
CONTINUOUS
 10
133.300000
 20
88.800000
  0
VERTEX
  8
FEATURES
 62
     5
  6
CONTINUOUS
 10
132.400000
 20
87.300000
  0
VERTEX
  8
FEATURES
 62
     5
  6
CONTINUOUS
 10
131.500000
 20
86.100000
  0
VERTEX
  8
FEATURES
 62
     5
  6
CONTINUOUS
 10
130.000000
 20
84.500000
  0
VERTEX
  8
FEATURES
 62
     5
  6
CONTINUOUS
 10
128.700000
 20
83.500000
  0
VERTEX
  8
FEATURES
 62
     5
  6
CONTINUOUS
 10
127.400000
 20
82.100000
  0
VERTEX
  8
FEATURES
 62
     5
  6
CONTINUOUS
 10
126.300000
 20
81.000000
  0
VERTEX
  8
FEATURES
 62
     5
  6
CONTINUOUS
 10
125.500000
 20
79.600000
  0
VERTEX
  8
FEATURES
 62
     5
  6
CONTINUOUS
 10
125.900000
 20
78.000000
  0
VERTEX
  8
FEATURES
 62
     5
  6
CONTINUOUS
 10
127.800000
 20
78.800000
  0
VERTEX
  8
FEATURES
 62
     5
  6
CONTINUOUS
 10
130.300000
 20
82.400000
  0
VERTEX
  8
FEATURES
 62
     5
  6
CONTINUOUS
 10
132.300000
 20
84.800000
  0
VERTEX
  8
FEATURES
 62
     5
  6
CONTINUOUS
 10
133.900000
 20
86.700000
  0
VERTEX
  8
FEATURES
 62
     5
  6
CONTINUOUS
 10
135.200000
 20
88.400000
  0
VERTEX
  8
FEATURES
 62
     5
  6
CONTINUOUS
 10
135.300000
 20
89.900000
  0
SEQEND
  8
FEATURES
  0
POLYLINE
  8
FEATURES
 62
     5
  6
CONTINUOUS
 66
     1
 40
0.100000
 41
0.100000
  0
VERTEX
  8
FEATURES
 62
     5
  6
CONTINUOUS
 10
140.700000
 20
98.000000
  0
VERTEX
  8
FEATURES
 62
     5
  6
CONTINUOUS
 10
139.400000
 20
96.300000
  0
VERTEX
  8
FEATURES
 62
     5
  6
CONTINUOUS
 10
138.300000
 20
94.500000
  0
VERTEX
  8
FEATURES
 62
     5
  6
CONTINUOUS
 10
137.800000
 20
92.500000
  0
VERTEX
  8
FEATURES
 62
     5
  6
CONTINUOUS
 10
138.800000
 20
90.200000
  0
VERTEX
  8
FEATURES
 62
     5
  6
CONTINUOUS
 10
140.700000
 20
91.000000
  0
VERTEX
  8
FEATURES
 62
     5
  6
CONTINUOUS
 10
141.900000
 20
92.300000
  0
VERTEX
  8
FEATURES
 62
     5
  6
CONTINUOUS
 10
142.900000
 20
93.800000
  0
VERTEX
  8
FEATURES
 62
     5
  6
CONTINUOUS
 10
143.700000
 20
95.300000
  0
VERTEX
  8
FEATURES
 62
     5
  6
CONTINUOUS
 10
143.300000
 20
97.600000
  0
VERTEX
  8
FEATURES
 62
     5
  6
CONTINUOUS
 10
141.700000
 20
98.000000
  0
VERTEX
  8
FEATURES
 62
     5
  6
CONTINUOUS
 10
140.700000
 20
98.000000
  0
SEQEND
  8
FEATURES
  0
POLYLINE
  8
FEATURES
 62
     5
  6
CONTINUOUS
 66
     1
 40
0.100000
 41
0.100000
  0
VERTEX
  8
FEATURES
 62
     5
  6
CONTINUOUS
 10
147.100000
 20
102.100000
  0
VERTEX
  8
FEATURES
 62
     5
  6
CONTINUOUS
 10
145.900000
 20
101.100000
  0
VERTEX
  8
FEATURES
 62
     5
  6
CONTINUOUS
 10
146.400000
 20
99.400000
  0
VERTEX
  8
FEATURES
 62
     5
  6
CONTINUOUS
 10
147.600000
 20
100.800000
  0
VERTEX
  8
FEATURES
 62
     5
  6
CONTINUOUS
 10
147.100000
 20
102.100000
  0
SEQEND
  8
FEATURES
  0
POLYLINE
  8
FEATURES
 62
     5
  6
CONTINUOUS
 66
     1
 40
0.100000
 41
0.100000
  0
VERTEX
  8
FEATURES
 62
     5
  6
CONTINUOUS
 10
148.300000
 20
105.300000
  0
VERTEX
  8
FEATURES
 62
     5
  6
CONTINUOUS
 10
147.200000
 20
104.200000
  0
VERTEX
  8
FEATURES
 62
     5
  6
CONTINUOUS
 10
148.500000
 20
103.300000
  0
VERTEX
  8
FEATURES
 62
     5
  6
CONTINUOUS
 10
148.600000
 20
105.200000
  0
VERTEX
  8
FEATURES
 62
     5
  6
CONTINUOUS
 10
148.300000
 20
105.300000
  0
SEQEND
  8
FEATURES
  0
POLYLINE
  8
FEATURES
 62
     5
  6
CONTINUOUS
 66
     1
 40
0.100000
 41
0.100000
  0
VERTEX
  8
FEATURES
 62
     5
  6
CONTINUOUS
 10
164.900000
 20
91.700000
  0
VERTEX
  8
FEATURES
 62
     5
  6
CONTINUOUS
 10
163.100000
 20
92.200000
  0
VERTEX
  8
FEATURES
 62
     5
  6
CONTINUOUS
 10
160.900000
 20
91.900000
  0
VERTEX
  8
FEATURES
 62
     5
  6
CONTINUOUS
 10
159.600000
 20
90.800000
  0
VERTEX
  8
FEATURES
 62
     5
  6
CONTINUOUS
 10
158.400000
 20
88.800000
  0
VERTEX
  8
FEATURES
 62
     5
  6
CONTINUOUS
 10
157.600000
 20
86.900000
  0
VERTEX
  8
FEATURES
 62
     5
  6
CONTINUOUS
 10
157.000000
 20
85.000000
  0
VERTEX
  8
FEATURES
 62
     5
  6
CONTINUOUS
 10
156.000000
 20
83.100000
  0
VERTEX
  8
FEATURES
 62
     5
  6
CONTINUOUS
 10
155.500000
 20
81.500000
  0
VERTEX
  8
FEATURES
 62
     5
  6
CONTINUOUS
 10
154.700000
 20
79.600000
  0
VERTEX
  8
FEATURES
 62
     5
  6
CONTINUOUS
 10
156.100000
 20
78.400000
  0
VERTEX
  8
FEATURES
 62
     5
  6
CONTINUOUS
 10
157.800000
 20
79.900000
  0
VERTEX
  8
FEATURES
 62
     5
  6
CONTINUOUS
 10
159.200000
 20
81.100000
  0
VERTEX
  8
FEATURES
 62
     5
  6
CONTINUOUS
 10
160.400000
 20
82.900000
  0
VERTEX
  8
FEATURES
 62
     5
  6
CONTINUOUS
 10
162.000000
 20
84.900000
  0
VERTEX
  8
FEATURES
 62
     5
  6
CONTINUOUS
 10
163.000000
 20
86.700000
  0
VERTEX
  8
FEATURES
 62
     5
  6
CONTINUOUS
 10
163.700000
 20
88.100000
  0
VERTEX
  8
FEATURES
 62
     5
  6
CONTINUOUS
 10
164.400000
 20
90.900000
  0
VERTEX
  8
FEATURES
 62
     5
  6
CONTINUOUS
 10
164.900000
 20
91.700000
  0
SEQEND
  8
FEATURES
  0
POLYLINE
  8
FEATURES
 62
     3
  6
CONTINUOUS
 66
     1
 40
0.100000
 41
0.100000
  0
VERTEX
  8
FEATURES
 62
     3
  6
CONTINUOUS
 10
39.800000
 20
9.100000
  0
VERTEX
  8
FEATURES
 62
     3
  6
CONTINUOUS
 10
39.100000
 20
8.800000
  0
VERTEX
  8
FEATURES
 62
     3
  6
CONTINUOUS
 10
38.500000
 20
8.300000
  0
VERTEX
  8
FEATURES
 62
     3
  6
CONTINUOUS
 10
37.400000
 20
7.600000
  0
VERTEX
  8
FEATURES
 62
     3
  6
CONTINUOUS
 10
36.600000
 20
6.600000
  0
VERTEX
  8
FEATURES
 62
     3
  6
CONTINUOUS
 10
36.200000
 20
4.000000
  0
VERTEX
  8
FEATURES
 62
     3
  6
CONTINUOUS
 10
36.300000
 20
2.000000
  0
SEQEND
  8
FEATURES
  0
POLYLINE
  8
FEATURES
 62
     3
  6
CONTINUOUS
 66
     1
 40
0.100000
 41
0.100000
  0
VERTEX
  8
FEATURES
 62
     3
  6
CONTINUOUS
 10
38.000000
 20
2.000000
  0
VERTEX
  8
FEATURES
 62
     3
  6
CONTINUOUS
 10
37.800000
 20
2.700000
  0
VERTEX
  8
FEATURES
 62
     3
  6
CONTINUOUS
 10
38.200000
 20
4.100000
  0
VERTEX
  8
FEATURES
 62
     3
  6
CONTINUOUS
 10
38.800000
 20
5.300000
  0
VERTEX
  8
FEATURES
 62
     3
  6
CONTINUOUS
 10
39.300000
 20
6.700000
  0
VERTEX
  8
FEATURES
 62
     3
  6
CONTINUOUS
 10
39.900000
 20
8.100000
  0
VERTEX
  8
FEATURES
 62
     3
  6
CONTINUOUS
 10
40.000000
 20
8.900000
  0
SEQEND
  8
FEATURES
  0
POLYLINE
  8
FEATURES
 62
     3
  6
CONTINUOUS
 66
     1
 40
0.100000
 41
0.100000
  0
VERTEX
  8
FEATURES
 62
     3
  6
CONTINUOUS
 10
55.400000
 20
27.000000
  0
VERTEX
  8
FEATURES
 62
     3
  6
CONTINUOUS
 10
55.100000
 20
27.200000
  0
VERTEX
  8
FEATURES
 62
     3
  6
CONTINUOUS
 10
54.900000
 20
27.300000
  0
VERTEX
  8
FEATURES
 62
     3
  6
CONTINUOUS
 10
53.200000
 20
26.300000
  0
VERTEX
  8
FEATURES
 62
     3
  6
CONTINUOUS
 10
52.300000
 20
25.800000
  0
VERTEX
  8
FEATURES
 62
     3
  6
CONTINUOUS
 10
51.700000
 20
25.200000
  0
VERTEX
  8
FEATURES
 62
     3
  6
CONTINUOUS
 10
51.200000
 20
24.600000
  0
VERTEX
  8
FEATURES
 62
     3
  6
CONTINUOUS
 10
51.400000
 20
24.200000
  0
VERTEX
  8
FEATURES
 62
     3
  6
CONTINUOUS
 10
52.100000
 20
24.000000
  0
VERTEX
  8
FEATURES
 62
     3
  6
CONTINUOUS
 10
53.700000
 20
24.600000
  0
VERTEX
  8
FEATURES
 62
     3
  6
CONTINUOUS
 10
54.900000
 20
25.600000
  0
VERTEX
  8
FEATURES
 62
     3
  6
CONTINUOUS
 10
55.500000
 20
26.400000
  0
SEQEND
  8
FEATURES
  0
POLYLINE
  8
FEATURES
 62
     3
  6
CONTINUOUS
 66
     1
 40
0.100000
 41
0.100000
  0
VERTEX
  8
FEATURES
 62
     3
  6
CONTINUOUS
 10
84.200000
 20
54.400000
  0
VERTEX
  8
FEATURES
 62
     3
  6
CONTINUOUS
 10
83.600000
 20
54.400000
  0
VERTEX
  8
FEATURES
 62
     3
  6
CONTINUOUS
 10
82.900000
 20
54.100000
  0
VERTEX
  8
FEATURES
 62
     3
  6
CONTINUOUS
 10
82.200000
 20
51.800000
  0
VERTEX
  8
FEATURES
 62
     3
  6
CONTINUOUS
 10
81.700000
 20
50.000000
  0
VERTEX
  8
FEATURES
 62
     3
  6
CONTINUOUS
 10
81.600000
 20
49.100000
  0
VERTEX
  8
FEATURES
 62
     3
  6
CONTINUOUS
 10
80.500000
 20
47.900000
  0
VERTEX
  8
FEATURES
 62
     3
  6
CONTINUOUS
 10
77.200000
 20
44.800000
  0
VERTEX
  8
FEATURES
 62
     3
  6
CONTINUOUS
 10
76.900000
 20
44.800000
  0
VERTEX
  8
FEATURES
 62
     3
  6
CONTINUOUS
 10
75.500000
 20
44.200000
  0
VERTEX
  8
FEATURES
 62
     3
  6
CONTINUOUS
 10
74.600000
 20
43.600000
  0
VERTEX
  8
FEATURES
 62
     3
  6
CONTINUOUS
 10
73.500000
 20
42.400000
  0
VERTEX
  8
FEATURES
 62
     3
  6
CONTINUOUS
 10
72.800000
 20
41.500000
  0
VERTEX
  8
FEATURES
 62
     3
  6
CONTINUOUS
 10
72.600000
 20
40.300000
  0
VERTEX
  8
FEATURES
 62
     3
  6
CONTINUOUS
 10
72.400000
 20
39.000000
  0
VERTEX
  8
FEATURES
 62
     3
  6
CONTINUOUS
 10
72.400000
 20
38.500000
  0
VERTEX
  8
FEATURES
 62
     3
  6
CONTINUOUS
 10
73.400000
 20
38.200000
  0
VERTEX
  8
FEATURES
 62
     3
  6
CONTINUOUS
 10
74.400000
 20
38.300000
  0
VERTEX
  8
FEATURES
 62
     3
  6
CONTINUOUS
 10
77.000000
 20
41.200000
  0
VERTEX
  8
FEATURES
 62
     3
  6
CONTINUOUS
 10
78.300000
 20
43.400000
  0
VERTEX
  8
FEATURES
 62
     3
  6
CONTINUOUS
 10
80.000000
 20
44.900000
  0
VERTEX
  8
FEATURES
 62
     3
  6
CONTINUOUS
 10
82.700000
 20
47.400000
  0
VERTEX
  8
FEATURES
 62
     3
  6
CONTINUOUS
 10
83.600000
 20
48.900000
  0
VERTEX
  8
FEATURES
 62
     3
  6
CONTINUOUS
 10
84.100000
 20
51.000000
  0
VERTEX
  8
FEATURES
 62
     3
  6
CONTINUOUS
 10
84.800000
 20
52.500000
  0
VERTEX
  8
FEATURES
 62
     3
  6
CONTINUOUS
 10
85.300000
 20
53.700000
  0
VERTEX
  8
FEATURES
 62
     3
  6
CONTINUOUS
 10
84.800000
 20
54.800000
  0
SEQEND
  8
FEATURES
  0
POLYLINE
  8
FEATURES
 62
     3
  6
CONTINUOUS
 66
     1
 40
0.100000
 41
0.100000
  0
VERTEX
  8
FEATURES
 62
     3
  6
CONTINUOUS
 10
102.700000
 20
75.200000
  0
VERTEX
  8
FEATURES
 62
     3
  6
CONTINUOUS
 10
101.900000
 20
75.700000
  0
VERTEX
  8
FEATURES
 62
     3
  6
CONTINUOUS
 10
100.700000
 20
75.600000
  0
VERTEX
  8
FEATURES
 62
     3
  6
CONTINUOUS
 10
99.900000
 20
74.500000
  0
VERTEX
  8
FEATURES
 62
     3
  6
CONTINUOUS
 10
98.400000
 20
74.000000
  0
VERTEX
  8
FEATURES
 62
     3
  6
CONTINUOUS
 10
96.800000
 20
73.200000
  0
VERTEX
  8
FEATURES
 62
     3
  6
CONTINUOUS
 10
95.900000
 20
72.200000
  0
VERTEX
  8
FEATURES
 62
     3
  6
CONTINUOUS
 10
95.500000
 20
71.400000
  0
VERTEX
  8
FEATURES
 62
     3
  6
CONTINUOUS
 10
94.200000
 20
70.300000
  0
VERTEX
  8
FEATURES
 62
     3
  6
CONTINUOUS
 10
93.600000
 20
69.000000
  0
VERTEX
  8
FEATURES
 62
     3
  6
CONTINUOUS
 10
93.000000
 20
68.100000
  0
VERTEX
  8
FEATURES
 62
     3
  6
CONTINUOUS
 10
93.100000
 20
66.500000
  0
VERTEX
  8
FEATURES
 62
     3
  6
CONTINUOUS
 10
94.600000
 20
67.000000
  0
VERTEX
  8
FEATURES
 62
     3
  6
CONTINUOUS
 10
96.100000
 20
68.300000
  0
VERTEX
  8
FEATURES
 62
     3
  6
CONTINUOUS
 10
97.100000
 20
70.100000
  0
VERTEX
  8
FEATURES
 62
     3
  6
CONTINUOUS
 10
98.600000
 20
71.100000
  0
VERTEX
  8
FEATURES
 62
     3
  6
CONTINUOUS
 10
100.300000
 20
72.000000
  0
VERTEX
  8
FEATURES
 62
     3
  6
CONTINUOUS
 10
102.400000
 20
73.400000
  0
VERTEX
  8
FEATURES
 62
     3
  6
CONTINUOUS
 10
103.000000
 20
74.700000
  0
VERTEX
  8
FEATURES
 62
     3
  6
CONTINUOUS
 10
102.900000
 20
75.300000
  0
SEQEND
  8
FEATURES
  0
POLYLINE
  8
FEATURES
 62
     4
  6
CONTINUOUS
 66
     1
 40
0.100000
 41
0.100000
  0
VERTEX
  8
FEATURES
 62
     4
  6
CONTINUOUS
 10
116.700000
 20
86.600000
  0
VERTEX
  8
FEATURES
 62
     4
  6
CONTINUOUS
 10
116.000000
 20
86.700000
  0
VERTEX
  8
FEATURES
 62
     4
  6
CONTINUOUS
 10
114.800000
 20
86.300000
  0
VERTEX
  8
FEATURES
 62
     4
  6
CONTINUOUS
 10
113.500000
 20
85.500000
  0
VERTEX
  8
FEATURES
 62
     4
  6
CONTINUOUS
 10
112.000000
 20
84.400000
  0
VERTEX
  8
FEATURES
 62
     4
  6
CONTINUOUS
 10
111.200000
 20
83.400000
  0
VERTEX
  8
FEATURES
 62
     4
  6
CONTINUOUS
 10
110.700000
 20
82.500000
  0
VERTEX
  8
FEATURES
 62
     4
  6
CONTINUOUS
 10
111.100000
 20
81.500000
  0
VERTEX
  8
FEATURES
 62
     4
  6
CONTINUOUS
 10
113.000000
 20
81.900000
  0
VERTEX
  8
FEATURES
 62
     4
  6
CONTINUOUS
 10
114.700000
 20
83.000000
  0
VERTEX
  8
FEATURES
 62
     4
  6
CONTINUOUS
 10
115.900000
 20
84.300000
  0
VERTEX
  8
FEATURES
 62
     4
  6
CONTINUOUS
 10
116.600000
 20
85.600000
  0
VERTEX
  8
FEATURES
 62
     4
  6
CONTINUOUS
 10
116.600000
 20
86.400000
  0
SEQEND
  8
FEATURES
  0
POLYLINE
  8
FEATURES
 62
     4
  6
CONTINUOUS
 66
     1
 40
0.100000
 41
0.100000
  0
VERTEX
  8
FEATURES
 62
     4
  6
CONTINUOUS
 10
102.800000
 20
43.800000
  0
VERTEX
  8
FEATURES
 62
     4
  6
CONTINUOUS
 10
102.100000
 20
43.900000
  0
VERTEX
  8
FEATURES
 62
     4
  6
CONTINUOUS
 10
101.300000
 20
43.900000
  0
VERTEX
  8
FEATURES
 62
     4
  6
CONTINUOUS
 10
101.100000
 20
43.200000
  0
VERTEX
  8
FEATURES
 62
     4
  6
CONTINUOUS
 10
101.000000
 20
42.600000
  0
VERTEX
  8
FEATURES
 62
     4
  6
CONTINUOUS
 10
101.500000
 20
42.100000
  0
VERTEX
  8
FEATURES
 62
     4
  6
CONTINUOUS
 10
102.200000
 20
42.400000
  0
VERTEX
  8
FEATURES
 62
     4
  6
CONTINUOUS
 10
102.800000
 20
43.100000
  0
VERTEX
  8
FEATURES
 62
     4
  6
CONTINUOUS
 10
102.700000
 20
43.700000
  0
SEQEND
  8
FEATURES
  0
POLYLINE
  8
FEATURES
 62
     3
  6
CONTINUOUS
 66
     1
 40
0.100000
 41
0.100000
  0
VERTEX
  8
FEATURES
 62
     3
  6
CONTINUOUS
 10
88.100000
 20
35.800000
  0
VERTEX
  8
FEATURES
 62
     3
  6
CONTINUOUS
 10
87.600000
 20
36.300000
  0
VERTEX
  8
FEATURES
 62
     3
  6
CONTINUOUS
 10
87.200000
 20
36.600000
  0
VERTEX
  8
FEATURES
 62
     3
  6
CONTINUOUS
 10
86.600000
 20
36.600000
  0
VERTEX
  8
FEATURES
 62
     3
  6
CONTINUOUS
 10
86.000000
 20
35.900000
  0
VERTEX
  8
FEATURES
 62
     3
  6
CONTINUOUS
 10
86.000000
 20
35.300000
  0
VERTEX
  8
FEATURES
 62
     3
  6
CONTINUOUS
 10
86.700000
 20
35.000000
  0
VERTEX
  8
FEATURES
 62
     3
  6
CONTINUOUS
 10
87.400000
 20
34.800000
  0
VERTEX
  8
FEATURES
 62
     3
  6
CONTINUOUS
 10
87.800000
 20
35.200000
  0
VERTEX
  8
FEATURES
 62
     3
  6
CONTINUOUS
 10
87.800000
 20
35.700000
  0
SEQEND
  8
FEATURES
  0
POLYLINE
  8
FEATURES
 62
     3
  6
CONTINUOUS
 66
     1
 40
0.100000
 41
0.100000
  0
VERTEX
  8
FEATURES
 62
     3
  6
CONTINUOUS
 10
78.800000
 20
22.900000
  0
VERTEX
  8
FEATURES
 62
     3
  6
CONTINUOUS
 10
78.400000
 20
23.500000
  0
VERTEX
  8
FEATURES
 62
     3
  6
CONTINUOUS
 10
77.400000
 20
24.100000
  0
VERTEX
  8
FEATURES
 62
     3
  6
CONTINUOUS
 10
76.200000
 20
24.500000
  0
VERTEX
  8
FEATURES
 62
     3
  6
CONTINUOUS
 10
74.600000
 20
24.900000
  0
VERTEX
  8
FEATURES
 62
     3
  6
CONTINUOUS
 10
73.000000
 20
25.000000
  0
VERTEX
  8
FEATURES
 62
     3
  6
CONTINUOUS
 10
72.300000
 20
24.500000
  0
VERTEX
  8
FEATURES
 62
     3
  6
CONTINUOUS
 10
72.600000
 20
23.800000
  0
VERTEX
  8
FEATURES
 62
     3
  6
CONTINUOUS
 10
73.800000
 20
22.600000
  0
VERTEX
  8
FEATURES
 62
     3
  6
CONTINUOUS
 10
75.200000
 20
22.100000
  0
VERTEX
  8
FEATURES
 62
     3
  6
CONTINUOUS
 10
76.700000
 20
22.000000
  0
VERTEX
  8
FEATURES
 62
     3
  6
CONTINUOUS
 10
77.500000
 20
22.000000
  0
VERTEX
  8
FEATURES
 62
     3
  6
CONTINUOUS
 10
78.600000
 20
22.600000
  0
SEQEND
  8
FEATURES
  0
POLYLINE
  8
FEATURES
 62
     3
  6
CONTINUOUS
 66
     1
 40
0.100000
 41
0.100000
  0
VERTEX
  8
FEATURES
 62
     3
  6
CONTINUOUS
 10
66.800000
 20
17.700000
  0
VERTEX
  8
FEATURES
 62
     3
  6
CONTINUOUS
 10
67.400000
 20
17.600000
  0
VERTEX
  8
FEATURES
 62
     3
  6
CONTINUOUS
 10
68.200000
 20
18.000000
  0
VERTEX
  8
FEATURES
 62
     3
  6
CONTINUOUS
 10
69.200000
 20
19.200000
  0
VERTEX
  8
FEATURES
 62
     3
  6
CONTINUOUS
 10
70.700000
 20
20.500000
  0
VERTEX
  8
FEATURES
 62
     3
  6
CONTINUOUS
 10
71.900000
 20
21.900000
  0
VERTEX
  8
FEATURES
 62
     3
  6
CONTINUOUS
 10
72.700000
 20
23.400000
  0
VERTEX
  8
FEATURES
 62
     3
  6
CONTINUOUS
 10
73.100000
 20
24.300000
  0
VERTEX
  8
FEATURES
 62
     3
  6
CONTINUOUS
 10
73.100000
 20
24.800000
  0
VERTEX
  8
FEATURES
 62
     3
  6
CONTINUOUS
 10
72.600000
 20
25.100000
  0
VERTEX
  8
FEATURES
 62
     3
  6
CONTINUOUS
 10
72.100000
 20
25.300000
  0
VERTEX
  8
FEATURES
 62
     3
  6
CONTINUOUS
 10
70.600000
 20
24.600000
  0
VERTEX
  8
FEATURES
 62
     3
  6
CONTINUOUS
 10
69.300000
 20
22.700000
  0
VERTEX
  8
FEATURES
 62
     3
  6
CONTINUOUS
 10
67.800000
 20
21.500000
  0
VERTEX
  8
FEATURES
 62
     3
  6
CONTINUOUS
 10
66.900000
 20
20.100000
  0
VERTEX
  8
FEATURES
 62
     3
  6
CONTINUOUS
 10
66.500000
 20
18.700000
  0
VERTEX
  8
FEATURES
 62
     3
  6
CONTINUOUS
 10
66.600000
 20
18.100000
  0
SEQEND
  8
FEATURES
  0
POLYLINE
  8
FEATURES
 62
     0
  6
CONTINUOUS
 66
     1
 40
0.400000
 41
0.400000
  0
VERTEX
  8
FEATURES
 62
     0
  6
CONTINUOUS
 10
73.400000
 20
96.400000
  0
VERTEX
  8
FEATURES
 62
     0
  6
CONTINUOUS
 10
155.300000
 20
56.800000
  0
SEQEND
  8
FEATURES
  0
SOLID
  8
FEATURES
 62
     0
 10
73.900000
 20
97.400000
 11
72.100000
 21
96.200000
 12
73.900000
 22
97.400000
 13
74.100000
 23
95.200000
  0
POLYLINE
  8
FEATURES
 62
     0
  6
CONTINUOUS
 66
     1
 40
0.100000
 41
0.100000
  0
VERTEX
  8
FEATURES
 62
     0
  6
CONTINUOUS
 10
73.900000
 20
97.400000
  0
VERTEX
  8
FEATURES
 62
     0
  6
CONTINUOUS
 10
72.100000
 20
96.200000
  0
VERTEX
  8
FEATURES
 62
     0
  6
CONTINUOUS
 10
74.100000
 20
95.200000
  0
VERTEX
  8
FEATURES
 62
     0
  6
CONTINUOUS
 10
73.900000
 20
97.400000
  0
SEQEND
  8
FEATURES
  0
SOLID
  8
FEATURES
 62
     0
 10
82.900000
 20
93.000000
 11
81.100000
 21
91.900000
 12
82.900000
 22
93.000000
 13
83.100000
 23
90.900000
  0
POLYLINE
  8
FEATURES
 62
     0
  6
CONTINUOUS
 66
     1
 40
0.100000
 41
0.100000
  0
VERTEX
  8
FEATURES
 62
     0
  6
CONTINUOUS
 10
82.900000
 20
93.000000
  0
VERTEX
  8
FEATURES
 62
     0
  6
CONTINUOUS
 10
81.100000
 20
91.900000
  0
VERTEX
  8
FEATURES
 62
     0
  6
CONTINUOUS
 10
83.100000
 20
90.900000
  0
VERTEX
  8
FEATURES
 62
     0
  6
CONTINUOUS
 10
82.900000
 20
93.000000
  0
SEQEND
  8
FEATURES
  0
SOLID
  8
FEATURES
 62
     0
 10
91.900000
 20
88.700000
 11
90.100000
 21
87.500000
 12
91.900000
 22
88.700000
 13
92.100000
 23
86.500000
  0
POLYLINE
  8
FEATURES
 62
     0
  6
CONTINUOUS
 66
     1
 40
0.100000
 41
0.100000
  0
VERTEX
  8
FEATURES
 62
     0
  6
CONTINUOUS
 10
91.900000
 20
88.700000
  0
VERTEX
  8
FEATURES
 62
     0
  6
CONTINUOUS
 10
90.100000
 20
87.500000
  0
VERTEX
  8
FEATURES
 62
     0
  6
CONTINUOUS
 10
92.100000
 20
86.500000
  0
VERTEX
  8
FEATURES
 62
     0
  6
CONTINUOUS
 10
91.900000
 20
88.700000
  0
SEQEND
  8
FEATURES
  0
SOLID
  8
FEATURES
 62
     0
 10
100.900000
 20
84.400000
 11
99.100000
 21
83.200000
 12
100.900000
 22
84.400000
 13
101.100000
 23
82.200000
  0
POLYLINE
  8
FEATURES
 62
     0
  6
CONTINUOUS
 66
     1
 40
0.100000
 41
0.100000
  0
VERTEX
  8
FEATURES
 62
     0
  6
CONTINUOUS
 10
100.900000
 20
84.400000
  0
VERTEX
  8
FEATURES
 62
     0
  6
CONTINUOUS
 10
99.100000
 20
83.200000
  0
VERTEX
  8
FEATURES
 62
     0
  6
CONTINUOUS
 10
101.100000
 20
82.200000
  0
VERTEX
  8
FEATURES
 62
     0
  6
CONTINUOUS
 10
100.900000
 20
84.400000
  0
SEQEND
  8
FEATURES
  0
SOLID
  8
FEATURES
 62
     0
 10
109.900000
 20
80.000000
 11
108.100000
 21
78.800000
 12
109.900000
 22
80.000000
 13
110.100000
 23
77.800000
  0
POLYLINE
  8
FEATURES
 62
     0
  6
CONTINUOUS
 66
     1
 40
0.100000
 41
0.100000
  0
VERTEX
  8
FEATURES
 62
     0
  6
CONTINUOUS
 10
109.900000
 20
80.000000
  0
VERTEX
  8
FEATURES
 62
     0
  6
CONTINUOUS
 10
108.100000
 20
78.800000
  0
VERTEX
  8
FEATURES
 62
     0
  6
CONTINUOUS
 10
110.100000
 20
77.800000
  0
VERTEX
  8
FEATURES
 62
     0
  6
CONTINUOUS
 10
109.900000
 20
80.000000
  0
SEQEND
  8
FEATURES
  0
SOLID
  8
FEATURES
 62
     0
 10
118.900000
 20
75.700000
 11
117.100000
 21
74.500000
 12
118.900000
 22
75.700000
 13
119.100000
 23
73.500000
  0
POLYLINE
  8
FEATURES
 62
     0
  6
CONTINUOUS
 66
     1
 40
0.100000
 41
0.100000
  0
VERTEX
  8
FEATURES
 62
     0
  6
CONTINUOUS
 10
118.900000
 20
75.700000
  0
VERTEX
  8
FEATURES
 62
     0
  6
CONTINUOUS
 10
117.100000
 20
74.500000
  0
VERTEX
  8
FEATURES
 62
     0
  6
CONTINUOUS
 10
119.100000
 20
73.500000
  0
VERTEX
  8
FEATURES
 62
     0
  6
CONTINUOUS
 10
118.900000
 20
75.700000
  0
SEQEND
  8
FEATURES
  0
SOLID
  8
FEATURES
 62
     0
 10
127.900000
 20
71.300000
 11
126.100000
 21
70.100000
 12
127.900000
 22
71.300000
 13
128.100000
 23
69.100000
  0
POLYLINE
  8
FEATURES
 62
     0
  6
CONTINUOUS
 66
     1
 40
0.100000
 41
0.100000
  0
VERTEX
  8
FEATURES
 62
     0
  6
CONTINUOUS
 10
127.900000
 20
71.300000
  0
VERTEX
  8
FEATURES
 62
     0
  6
CONTINUOUS
 10
126.100000
 20
70.100000
  0
VERTEX
  8
FEATURES
 62
     0
  6
CONTINUOUS
 10
128.100000
 20
69.100000
  0
VERTEX
  8
FEATURES
 62
     0
  6
CONTINUOUS
 10
127.900000
 20
71.300000
  0
SEQEND
  8
FEATURES
  0
SOLID
  8
FEATURES
 62
     0
 10
136.900000
 20
67.000000
 11
135.100000
 21
65.800000
 12
136.900000
 22
67.000000
 13
137.100000
 23
64.800000
  0
POLYLINE
  8
FEATURES
 62
     0
  6
CONTINUOUS
 66
     1
 40
0.100000
 41
0.100000
  0
VERTEX
  8
FEATURES
 62
     0
  6
CONTINUOUS
 10
136.900000
 20
67.000000
  0
VERTEX
  8
FEATURES
 62
     0
  6
CONTINUOUS
 10
135.100000
 20
65.800000
  0
VERTEX
  8
FEATURES
 62
     0
  6
CONTINUOUS
 10
137.100000
 20
64.800000
  0
VERTEX
  8
FEATURES
 62
     0
  6
CONTINUOUS
 10
136.900000
 20
67.000000
  0
SEQEND
  8
FEATURES
  0
SOLID
  8
FEATURES
 62
     0
 10
145.900000
 20
62.600000
 11
144.100000
 21
61.400000
 12
145.900000
 22
62.600000
 13
146.100000
 23
60.400000
  0
POLYLINE
  8
FEATURES
 62
     0
  6
CONTINUOUS
 66
     1
 40
0.100000
 41
0.100000
  0
VERTEX
  8
FEATURES
 62
     0
  6
CONTINUOUS
 10
145.900000
 20
62.600000
  0
VERTEX
  8
FEATURES
 62
     0
  6
CONTINUOUS
 10
144.100000
 20
61.400000
  0
VERTEX
  8
FEATURES
 62
     0
  6
CONTINUOUS
 10
146.100000
 20
60.400000
  0
VERTEX
  8
FEATURES
 62
     0
  6
CONTINUOUS
 10
145.900000
 20
62.600000
  0
SEQEND
  8
FEATURES
  0
SOLID
  8
FEATURES
 62
     0
 10
154.900000
 20
58.300000
 11
153.100000
 21
57.100000
 12
154.900000
 22
58.300000
 13
155.100000
 23
56.100000
  0
POLYLINE
  8
FEATURES
 62
     0
  6
CONTINUOUS
 66
     1
 40
0.100000
 41
0.100000
  0
VERTEX
  8
FEATURES
 62
     0
  6
CONTINUOUS
 10
154.900000
 20
58.300000
  0
VERTEX
  8
FEATURES
 62
     0
  6
CONTINUOUS
 10
153.100000
 20
57.100000
  0
VERTEX
  8
FEATURES
 62
     0
  6
CONTINUOUS
 10
155.100000
 20
56.100000
  0
VERTEX
  8
FEATURES
 62
     0
  6
CONTINUOUS
 10
154.900000
 20
58.300000
  0
SEQEND
  8
FEATURES
  0
POLYLINE
  8
FEATURES
 62
     0
  6
CONTINUOUS
 66
     1
 40
0.400000
 41
0.400000
  0
VERTEX
  8
FEATURES
 62
     0
  6
CONTINUOUS
 10
26.400000
 20
44.600000
  0
VERTEX
  8
FEATURES
 62
     0
  6
CONTINUOUS
 10
118.100000
 20
2.000000
  0
SEQEND
  8
FEATURES
  0
SOLID
  8
FEATURES
 62
     0
 10
26.800000
 20
45.600000
 11
25.000000
 21
44.400000
 12
26.800000
 22
45.600000
 13
27.100000
 23
43.400000
  0
POLYLINE
  8
FEATURES
 62
     0
  6
CONTINUOUS
 66
     1
 40
0.100000
 41
0.100000
  0
VERTEX
  8
FEATURES
 62
     0
  6
CONTINUOUS
 10
26.800000
 20
45.600000
  0
VERTEX
  8
FEATURES
 62
     0
  6
CONTINUOUS
 10
25.000000
 20
44.400000
  0
VERTEX
  8
FEATURES
 62
     0
  6
CONTINUOUS
 10
27.100000
 20
43.400000
  0
VERTEX
  8
FEATURES
 62
     0
  6
CONTINUOUS
 10
26.800000
 20
45.600000
  0
SEQEND
  8
FEATURES
  0
SOLID
  8
FEATURES
 62
     0
 10
35.900000
 20
41.400000
 11
34.100000
 21
40.200000
 12
35.900000
 22
41.400000
 13
36.100000
 23
39.200000
  0
POLYLINE
  8
FEATURES
 62
     0
  6
CONTINUOUS
 66
     1
 40
0.100000
 41
0.100000
  0
VERTEX
  8
FEATURES
 62
     0
  6
CONTINUOUS
 10
35.900000
 20
41.400000
  0
VERTEX
  8
FEATURES
 62
     0
  6
CONTINUOUS
 10
34.100000
 20
40.200000
  0
VERTEX
  8
FEATURES
 62
     0
  6
CONTINUOUS
 10
36.100000
 20
39.200000
  0
VERTEX
  8
FEATURES
 62
     0
  6
CONTINUOUS
 10
35.900000
 20
41.400000
  0
SEQEND
  8
FEATURES
  0
SOLID
  8
FEATURES
 62
     0
 10
45.000000
 20
37.200000
 11
43.200000
 21
36.000000
 12
45.000000
 22
37.200000
 13
45.200000
 23
35.000000
  0
POLYLINE
  8
FEATURES
 62
     0
  6
CONTINUOUS
 66
     1
 40
0.100000
 41
0.100000
  0
VERTEX
  8
FEATURES
 62
     0
  6
CONTINUOUS
 10
45.000000
 20
37.200000
  0
VERTEX
  8
FEATURES
 62
     0
  6
CONTINUOUS
 10
43.200000
 20
36.000000
  0
VERTEX
  8
FEATURES
 62
     0
  6
CONTINUOUS
 10
45.200000
 20
35.000000
  0
VERTEX
  8
FEATURES
 62
     0
  6
CONTINUOUS
 10
45.000000
 20
37.200000
  0
SEQEND
  8
FEATURES
  0
SOLID
  8
FEATURES
 62
     0
 10
54.000000
 20
33.000000
 11
52.200000
 21
31.700000
 12
54.000000
 22
33.000000
 13
54.300000
 23
30.800000
  0
POLYLINE
  8
FEATURES
 62
     0
  6
CONTINUOUS
 66
     1
 40
0.100000
 41
0.100000
  0
VERTEX
  8
FEATURES
 62
     0
  6
CONTINUOUS
 10
54.000000
 20
33.000000
  0
VERTEX
  8
FEATURES
 62
     0
  6
CONTINUOUS
 10
52.200000
 20
31.700000
  0
VERTEX
  8
FEATURES
 62
     0
  6
CONTINUOUS
 10
54.300000
 20
30.800000
  0
VERTEX
  8
FEATURES
 62
     0
  6
CONTINUOUS
 10
54.000000
 20
33.000000
  0
SEQEND
  8
FEATURES
  0
SOLID
  8
FEATURES
 62
     0
 10
63.100000
 20
28.800000
 11
61.300000
 21
27.500000
 12
63.100000
 22
28.800000
 13
63.300000
 23
26.600000
  0
POLYLINE
  8
FEATURES
 62
     0
  6
CONTINUOUS
 66
     1
 40
0.100000
 41
0.100000
  0
VERTEX
  8
FEATURES
 62
     0
  6
CONTINUOUS
 10
63.100000
 20
28.800000
  0
VERTEX
  8
FEATURES
 62
     0
  6
CONTINUOUS
 10
61.300000
 20
27.500000
  0
VERTEX
  8
FEATURES
 62
     0
  6
CONTINUOUS
 10
63.300000
 20
26.600000
  0
VERTEX
  8
FEATURES
 62
     0
  6
CONTINUOUS
 10
63.100000
 20
28.800000
  0
SEQEND
  8
FEATURES
  0
SOLID
  8
FEATURES
 62
     0
 10
72.200000
 20
24.500000
 11
70.400000
 21
23.300000
 12
72.200000
 22
24.500000
 13
72.400000
 23
22.400000
  0
POLYLINE
  8
FEATURES
 62
     0
  6
CONTINUOUS
 66
     1
 40
0.100000
 41
0.100000
  0
VERTEX
  8
FEATURES
 62
     0
  6
CONTINUOUS
 10
72.200000
 20
24.500000
  0
VERTEX
  8
FEATURES
 62
     0
  6
CONTINUOUS
 10
70.400000
 20
23.300000
  0
VERTEX
  8
FEATURES
 62
     0
  6
CONTINUOUS
 10
72.400000
 20
22.400000
  0
VERTEX
  8
FEATURES
 62
     0
  6
CONTINUOUS
 10
72.200000
 20
24.500000
  0
SEQEND
  8
FEATURES
  0
SOLID
  8
FEATURES
 62
     0
 10
81.300000
 20
20.300000
 11
79.500000
 21
19.100000
 12
81.300000
 22
20.300000
 13
81.500000
 23
18.200000
  0
POLYLINE
  8
FEATURES
 62
     0
  6
CONTINUOUS
 66
     1
 40
0.100000
 41
0.100000
  0
VERTEX
  8
FEATURES
 62
     0
  6
CONTINUOUS
 10
81.300000
 20
20.300000
  0
VERTEX
  8
FEATURES
 62
     0
  6
CONTINUOUS
 10
79.500000
 20
19.100000
  0
VERTEX
  8
FEATURES
 62
     0
  6
CONTINUOUS
 10
81.500000
 20
18.200000
  0
VERTEX
  8
FEATURES
 62
     0
  6
CONTINUOUS
 10
81.300000
 20
20.300000
  0
SEQEND
  8
FEATURES
  0
SOLID
  8
FEATURES
 62
     0
 10
90.300000
 20
16.100000
 11
88.500000
 21
14.900000
 12
90.300000
 22
16.100000
 13
90.600000
 23
14.000000
  0
POLYLINE
  8
FEATURES
 62
     0
  6
CONTINUOUS
 66
     1
 40
0.100000
 41
0.100000
  0
VERTEX
  8
FEATURES
 62
     0
  6
CONTINUOUS
 10
90.300000
 20
16.100000
  0
VERTEX
  8
FEATURES
 62
     0
  6
CONTINUOUS
 10
88.500000
 20
14.900000
  0
VERTEX
  8
FEATURES
 62
     0
  6
CONTINUOUS
 10
90.600000
 20
14.000000
  0
VERTEX
  8
FEATURES
 62
     0
  6
CONTINUOUS
 10
90.300000
 20
16.100000
  0
SEQEND
  8
FEATURES
  0
SOLID
  8
FEATURES
 62
     0
 10
99.400000
 20
11.900000
 11
97.600000
 21
10.700000
 12
99.400000
 22
11.900000
 13
99.600000
 23
9.800000
  0
POLYLINE
  8
FEATURES
 62
     0
  6
CONTINUOUS
 66
     1
 40
0.100000
 41
0.100000
  0
VERTEX
  8
FEATURES
 62
     0
  6
CONTINUOUS
 10
99.400000
 20
11.900000
  0
VERTEX
  8
FEATURES
 62
     0
  6
CONTINUOUS
 10
97.600000
 20
10.700000
  0
VERTEX
  8
FEATURES
 62
     0
  6
CONTINUOUS
 10
99.600000
 20
9.800000
  0
VERTEX
  8
FEATURES
 62
     0
  6
CONTINUOUS
 10
99.400000
 20
11.900000
  0
SEQEND
  8
FEATURES
  0
SOLID
  8
FEATURES
 62
     0
 10
108.500000
 20
7.700000
 11
106.700000
 21
6.500000
 12
108.500000
 22
7.700000
 13
108.700000
 23
5.500000
  0
POLYLINE
  8
FEATURES
 62
     0
  6
CONTINUOUS
 66
     1
 40
0.100000
 41
0.100000
  0
VERTEX
  8
FEATURES
 62
     0
  6
CONTINUOUS
 10
108.500000
 20
7.700000
  0
VERTEX
  8
FEATURES
 62
     0
  6
CONTINUOUS
 10
106.700000
 20
6.500000
  0
VERTEX
  8
FEATURES
 62
     0
  6
CONTINUOUS
 10
108.700000
 20
5.500000
  0
VERTEX
  8
FEATURES
 62
     0
  6
CONTINUOUS
 10
108.500000
 20
7.700000
  0
SEQEND
  8
FEATURES
  0
SOLID
  8
FEATURES
 62
     0
 10
117.500000
 20
3.500000
 11
115.700000
 21
2.300000
 12
117.700000
 22
2.000000
 13
116.300000
 23
2.000000
  0
POLYLINE
  8
FEATURES
 62
     0
  6
CONTINUOUS
 66
     1
 40
0.100000
 41
0.100000
  0
VERTEX
  8
FEATURES
 62
     0
  6
CONTINUOUS
 10
117.500000
 20
3.500000
  0
VERTEX
  8
FEATURES
 62
     0
  6
CONTINUOUS
 10
115.700000
 20
2.300000
  0
VERTEX
  8
FEATURES
 62
     0
  6
CONTINUOUS
 10
116.300000
 20
2.000000
  0
VERTEX
  8
FEATURES
 62
     0
  6
CONTINUOUS
 10
117.700000
 20
2.000000
  0
VERTEX
  8
FEATURES
 62
     0
  6
CONTINUOUS
 10
117.500000
 20
3.500000
  0
SEQEND
  8
FEATURES
  0
POLYLINE
  8
FEATURES
 62
     0
  6
CONTINUOUS
 66
     1
 40
0.400000
 41
0.400000
  0
VERTEX
  8
FEATURES
 62
     0
  6
CONTINUOUS
 10
106.400000
 20
148.700000
  0
VERTEX
  8
FEATURES
 62
     0
  6
CONTINUOUS
 10
171.900000
 20
119.000000
  0
SEQEND
  8
FEATURES
  0
SOLID
  8
FEATURES
 62
     0
 10
106.800000
 20
149.700000
 11
105.100000
 21
148.400000
 12
106.800000
 22
149.700000
 13
107.100000
 23
147.500000
  0
POLYLINE
  8
FEATURES
 62
     0
  6
CONTINUOUS
 66
     1
 40
0.100000
 41
0.100000
  0
VERTEX
  8
FEATURES
 62
     0
  6
CONTINUOUS
 10
106.800000
 20
149.700000
  0
VERTEX
  8
FEATURES
 62
     0
  6
CONTINUOUS
 10
105.100000
 20
148.400000
  0
VERTEX
  8
FEATURES
 62
     0
  6
CONTINUOUS
 10
107.100000
 20
147.500000
  0
VERTEX
  8
FEATURES
 62
     0
  6
CONTINUOUS
 10
106.800000
 20
149.700000
  0
SEQEND
  8
FEATURES
  0
SOLID
  8
FEATURES
 62
     0
 10
116.000000
 20
145.600000
 11
114.200000
 21
144.300000
 12
116.000000
 22
145.600000
 13
116.200000
 23
143.400000
  0
POLYLINE
  8
FEATURES
 62
     0
  6
CONTINUOUS
 66
     1
 40
0.100000
 41
0.100000
  0
VERTEX
  8
FEATURES
 62
     0
  6
CONTINUOUS
 10
116.000000
 20
145.600000
  0
VERTEX
  8
FEATURES
 62
     0
  6
CONTINUOUS
 10
114.200000
 20
144.300000
  0
VERTEX
  8
FEATURES
 62
     0
  6
CONTINUOUS
 10
116.200000
 20
143.400000
  0
VERTEX
  8
FEATURES
 62
     0
  6
CONTINUOUS
 10
116.000000
 20
145.600000
  0
SEQEND
  8
FEATURES
  0
SOLID
  8
FEATURES
 62
     0
 10
125.100000
 20
141.400000
 11
123.300000
 21
140.200000
 12
125.100000
 22
141.400000
 13
125.300000
 23
139.300000
  0
POLYLINE
  8
FEATURES
 62
     0
  6
CONTINUOUS
 66
     1
 40
0.100000
 41
0.100000
  0
VERTEX
  8
FEATURES
 62
     0
  6
CONTINUOUS
 10
125.100000
 20
141.400000
  0
VERTEX
  8
FEATURES
 62
     0
  6
CONTINUOUS
 10
123.300000
 20
140.200000
  0
VERTEX
  8
FEATURES
 62
     0
  6
CONTINUOUS
 10
125.300000
 20
139.300000
  0
VERTEX
  8
FEATURES
 62
     0
  6
CONTINUOUS
 10
125.100000
 20
141.400000
  0
SEQEND
  8
FEATURES
  0
SOLID
  8
FEATURES
 62
     0
 10
134.200000
 20
137.300000
 11
132.400000
 21
136.100000
 12
134.200000
 22
137.300000
 13
134.400000
 23
135.100000
  0
POLYLINE
  8
FEATURES
 62
     0
  6
CONTINUOUS
 66
     1
 40
0.100000
 41
0.100000
  0
VERTEX
  8
FEATURES
 62
     0
  6
CONTINUOUS
 10
134.200000
 20
137.300000
  0
VERTEX
  8
FEATURES
 62
     0
  6
CONTINUOUS
 10
132.400000
 20
136.100000
  0
VERTEX
  8
FEATURES
 62
     0
  6
CONTINUOUS
 10
134.400000
 20
135.100000
  0
VERTEX
  8
FEATURES
 62
     0
  6
CONTINUOUS
 10
134.200000
 20
137.300000
  0
SEQEND
  8
FEATURES
  0
SOLID
  8
FEATURES
 62
     0
 10
143.300000
 20
133.200000
 11
141.500000
 21
131.900000
 12
143.300000
 22
133.200000
 13
143.500000
 23
131.000000
  0
POLYLINE
  8
FEATURES
 62
     0
  6
CONTINUOUS
 66
     1
 40
0.100000
 41
0.100000
  0
VERTEX
  8
FEATURES
 62
     0
  6
CONTINUOUS
 10
143.300000
 20
133.200000
  0
VERTEX
  8
FEATURES
 62
     0
  6
CONTINUOUS
 10
141.500000
 20
131.900000
  0
VERTEX
  8
FEATURES
 62
     0
  6
CONTINUOUS
 10
143.500000
 20
131.000000
  0
VERTEX
  8
FEATURES
 62
     0
  6
CONTINUOUS
 10
143.300000
 20
133.200000
  0
SEQEND
  8
FEATURES
  0
SOLID
  8
FEATURES
 62
     0
 10
152.400000
 20
129.000000
 11
150.600000
 21
127.800000
 12
152.400000
 22
129.000000
 13
152.600000
 23
126.900000
  0
POLYLINE
  8
FEATURES
 62
     0
  6
CONTINUOUS
 66
     1
 40
0.100000
 41
0.100000
  0
VERTEX
  8
FEATURES
 62
     0
  6
CONTINUOUS
 10
152.400000
 20
129.000000
  0
VERTEX
  8
FEATURES
 62
     0
  6
CONTINUOUS
 10
150.600000
 20
127.800000
  0
VERTEX
  8
FEATURES
 62
     0
  6
CONTINUOUS
 10
152.600000
 20
126.900000
  0
VERTEX
  8
FEATURES
 62
     0
  6
CONTINUOUS
 10
152.400000
 20
129.000000
  0
SEQEND
  8
FEATURES
  0
SOLID
  8
FEATURES
 62
     0
 10
161.500000
 20
124.900000
 11
159.700000
 21
123.700000
 12
161.500000
 22
124.900000
 13
161.700000
 23
122.700000
  0
POLYLINE
  8
FEATURES
 62
     0
  6
CONTINUOUS
 66
     1
 40
0.100000
 41
0.100000
  0
VERTEX
  8
FEATURES
 62
     0
  6
CONTINUOUS
 10
161.500000
 20
124.900000
  0
VERTEX
  8
FEATURES
 62
     0
  6
CONTINUOUS
 10
159.700000
 20
123.700000
  0
VERTEX
  8
FEATURES
 62
     0
  6
CONTINUOUS
 10
161.700000
 20
122.700000
  0
VERTEX
  8
FEATURES
 62
     0
  6
CONTINUOUS
 10
161.500000
 20
124.900000
  0
SEQEND
  8
FEATURES
  0
SOLID
  8
FEATURES
 62
     0
 10
170.600000
 20
120.800000
 11
168.800000
 21
119.500000
 12
170.600000
 22
120.800000
 13
170.800000
 23
118.600000
  0
POLYLINE
  8
FEATURES
 62
     0
  6
CONTINUOUS
 66
     1
 40
0.100000
 41
0.100000
  0
VERTEX
  8
FEATURES
 62
     0
  6
CONTINUOUS
 10
170.600000
 20
120.800000
  0
VERTEX
  8
FEATURES
 62
     0
  6
CONTINUOUS
 10
168.800000
 20
119.500000
  0
VERTEX
  8
FEATURES
 62
     0
  6
CONTINUOUS
 10
170.800000
 20
118.600000
  0
VERTEX
  8
FEATURES
 62
     0
  6
CONTINUOUS
 10
170.600000
 20
120.800000
  0
SEQEND
  8
FEATURES
  0
LINE
  8
FEATURES
 62
     0
  6
CONTINUOUS
 10
120.600000
 20
70.100000
 11
118.700000
 21
67.800000
  0
LINE
  8
FEATURES
 62
     0
  6
CONTINUOUS
 10
120.400000
 20
69.800000
 11
120.300000
 21
69.700000
  0
LINE
  8
FEATURES
 62
     0
  6
CONTINUOUS
 10
120.600000
 20
70.100000
 11
120.500000
 21
70.700000
  0
LINE
  8
FEATURES
 62
     0
  6
CONTINUOUS
 10
120.600000
 20
70.100000
 11
121.200000
 21
70.100000
  0
LINE
  8
FEATURES
 62
     0
  6
CONTINUOUS
 10
118.700000
 20
67.800000
 11
118.000000
 21
67.700000
  0
LINE
  8
FEATURES
 62
     0
  6
CONTINUOUS
 10
118.700000
 20
67.800000
 11
118.700000
 21
67.100000
  0
LINE
  8
FEATURES
 62
     0
  6
CONTINUOUS
 10
127.400000
 20
89.700000
 11
126.700000
 21
87.600000
  0
LINE
  8
FEATURES
 62
     0
  6
CONTINUOUS
 10
127.400000
 20
89.500000
 11
127.300000
 21
89.400000
  0
LINE
  8
FEATURES
 62
     0
  6
CONTINUOUS
 10
127.400000
 20
89.700000
 11
127.200000
 21
90.200000
  0
LINE
  8
FEATURES
 62
     0
  6
CONTINUOUS
 10
127.400000
 20
89.700000
 11
127.900000
 21
89.900000
  0
LINE
  8
FEATURES
 62
     0
  6
CONTINUOUS
 10
126.700000
 20
87.600000
 11
126.200000
 21
87.400000
  0
LINE
  8
FEATURES
 62
     0
  6
CONTINUOUS
 10
126.700000
 20
87.600000
 11
126.900000
 21
87.200000
  0
LINE
  8
FEATURES
 62
     0
  6
CONTINUOUS
 10
168.900000
 20
134.200000
 11
168.000000
 21
133.300000
  0
LINE
  8
FEATURES
 62
     0
  6
CONTINUOUS
 10
168.900000
 20
134.200000
 11
168.900000
 21
134.400000
  0
LINE
  8
FEATURES
 62
     0
  6
CONTINUOUS
 10
168.900000
 20
134.200000
 11
169.100000
 21
134.200000
  0
LINE
  8
FEATURES
 62
     0
  6
CONTINUOUS
 10
168.000000
 20
133.300000
 11
167.800000
 21
133.300000
  0
LINE
  8
FEATURES
 62
     0
  6
CONTINUOUS
 10
168.000000
 20
133.300000
 11
168.000000
 21
133.100000
  0
SOLID
  8
FEATURES
 62
     0
 10
98.500000
 20
74.800000
 11
97.400000
 21
73.000000
 12
98.500000
 22
74.800000
 13
99.600000
 23
73.000000
  0
POLYLINE
  8
FEATURES
 62
     0
  6
CONTINUOUS
 66
     1
 40
0.100000
 41
0.100000
  0
VERTEX
  8
FEATURES
 62
     0
  6
CONTINUOUS
 10
98.500000
 20
74.800000
  0
VERTEX
  8
FEATURES
 62
     0
  6
CONTINUOUS
 10
97.400000
 20
73.000000
  0
VERTEX
  8
FEATURES
 62
     0
  6
CONTINUOUS
 10
99.600000
 20
73.000000
  0
VERTEX
  8
FEATURES
 62
     0
  6
CONTINUOUS
 10
98.500000
 20
74.800000
  0
SEQEND
  8
FEATURES
  0
LINE
  8
FEATURES
 62
     0
  6
CONTINUOUS
 10
140.500000
 20
78.500000
 11
144.000000
 21
80.500000
  0
LINE
  8
FEATURES
 62
     0
  6
CONTINUOUS
 10
140.500000
 20
78.500000
 11
137.000000
 21
76.500000
  0
POLYLINE
  8
FEATURES
 62
     0
  6
CONTINUOUS
 66
     1
 40
0.000000
 41
0.000000
  0
VERTEX
  8
FEATURES
 62
     0
  6
CONTINUOUS
 10
140.500000
 20
78.500000
  0
VERTEX
  8
FEATURES
 62
     0
  6
CONTINUOUS
 10
141.400000
 20
79.000000
  0
VERTEX
  8
FEATURES
 62
     0
  6
CONTINUOUS
 10
141.900000
 20
78.100000
  0
VERTEX
  8
FEATURES
 62
     0
  6
CONTINUOUS
 10
140.100000
 20
77.100000
  0
VERTEX
  8
FEATURES
 62
     0
  6
CONTINUOUS
 10
139.600000
 20
78.000000
  0
VERTEX
  8
FEATURES
 62
     0
  6
CONTINUOUS
 10
140.500000
 20
78.500000
  0
SEQEND
  8
FEATURES
  0
LINE
  8
FEATURES
 62
     0
  6
CONTINUOUS
 10
137.400000
 20
75.800000
 11
141.200000
 21
74.400000
  0
LINE
  8
FEATURES
 62
     0
  6
CONTINUOUS
 10
137.400000
 20
75.800000
 11
133.700000
 21
77.100000
  0
POLYLINE
  8
FEATURES
 62
     0
  6
CONTINUOUS
 66
     1
 40
0.000000
 41
0.000000
  0
VERTEX
  8
FEATURES
 62
     0
  6
CONTINUOUS
 10
137.400000
 20
75.800000
  0
VERTEX
  8
FEATURES
 62
     0
  6
CONTINUOUS
 10
138.400000
 20
75.400000
  0
VERTEX
  8
FEATURES
 62
     0
  6
CONTINUOUS
 10
138.000000
 20
74.500000
  0
VERTEX
  8
FEATURES
 62
     0
  6
CONTINUOUS
 10
136.100000
 20
75.200000
  0
VERTEX
  8
FEATURES
 62
     0
  6
CONTINUOUS
 10
136.500000
 20
76.100000
  0
VERTEX
  8
FEATURES
 62
     0
  6
CONTINUOUS
 10
137.400000
 20
75.800000
  0
SEQEND
  8
FEATURES
  0
LINE
  8
FEATURES
 62
     0
  6
CONTINUOUS
 10
133.100000
 20
72.600000
 11
131.700000
 21
68.800000
  0
LINE
  8
FEATURES
 62
     0
  6
CONTINUOUS
 10
133.100000
 20
72.600000
 11
134.500000
 21
76.300000
  0
POLYLINE
  8
FEATURES
 62
     0
  6
CONTINUOUS
 66
     1
 40
0.000000
 41
0.000000
  0
VERTEX
  8
FEATURES
 62
     0
  6
CONTINUOUS
 10
133.100000
 20
72.600000
  0
VERTEX
  8
FEATURES
 62
     0
  6
CONTINUOUS
 10
132.800000
 20
71.600000
  0
VERTEX
  8
FEATURES
 62
     0
  6
CONTINUOUS
 10
131.800000
 20
72.000000
  0
VERTEX
  8
FEATURES
 62
     0
  6
CONTINUOUS
 10
132.500000
 20
73.800000
  0
VERTEX
  8
FEATURES
 62
     0
  6
CONTINUOUS
 10
133.500000
 20
73.500000
  0
VERTEX
  8
FEATURES
 62
     0
  6
CONTINUOUS
 10
133.100000
 20
72.600000
  0
SEQEND
  8
FEATURES
  0
LINE
  8
FEATURES
 62
     0
  6
CONTINUOUS
 10
140.600000
 20
93.000000
 11
136.600000
 21
93.000000
  0
LINE
  8
FEATURES
 62
     0
  6
CONTINUOUS
 10
140.600000
 20
93.000000
 11
144.600000
 21
93.000000
  0
POLYLINE
  8
FEATURES
 62
     0
  6
CONTINUOUS
 66
     1
 40
0.000000
 41
0.000000
  0
VERTEX
  8
FEATURES
 62
     0
  6
CONTINUOUS
 10
140.600000
 20
93.000000
  0
VERTEX
  8
FEATURES
 62
     0
  6
CONTINUOUS
 10
139.600000
 20
93.000000
  0
VERTEX
  8
FEATURES
 62
     0
  6
CONTINUOUS
 10
139.600000
 20
94.000000
  0
VERTEX
  8
FEATURES
 62
     0
  6
CONTINUOUS
 10
141.600000
 20
94.000000
  0
VERTEX
  8
FEATURES
 62
     0
  6
CONTINUOUS
 10
141.600000
 20
93.000000
  0
VERTEX
  8
FEATURES
 62
     0
  6
CONTINUOUS
 10
140.600000
 20
93.000000
  0
SEQEND
  8
FEATURES
  0
LINE
  8
FEATURES
 62
     0
  6
CONTINUOUS
 10
130.000000
 20
84.100000
 11
128.700000
 21
80.300000
  0
LINE
  8
FEATURES
 62
     0
  6
CONTINUOUS
 10
130.000000
 20
84.100000
 11
131.400000
 21
87.800000
  0
POLYLINE
  8
FEATURES
 62
     0
  6
CONTINUOUS
 66
     1
 40
0.000000
 41
0.000000
  0
VERTEX
  8
FEATURES
 62
     0
  6
CONTINUOUS
 10
130.000000
 20
84.100000
  0
VERTEX
  8
FEATURES
 62
     0
  6
CONTINUOUS
 10
129.700000
 20
83.100000
  0
VERTEX
  8
FEATURES
 62
     0
  6
CONTINUOUS
 10
128.700000
 20
83.500000
  0
VERTEX
  8
FEATURES
 62
     0
  6
CONTINUOUS
 10
129.400000
 20
85.300000
  0
VERTEX
  8
FEATURES
 62
     0
  6
CONTINUOUS
 10
130.400000
 20
85.000000
  0
VERTEX
  8
FEATURES
 62
     0
  6
CONTINUOUS
 10
130.000000
 20
84.100000
  0
SEQEND
  8
FEATURES
  0
LINE
  8
FEATURES
 62
     0
  6
CONTINUOUS
 10
140.600000
 20
96.100000
 11
137.800000
 21
98.900000
  0
LINE
  8
FEATURES
 62
     0
  6
CONTINUOUS
 10
140.600000
 20
96.100000
 11
143.400000
 21
93.200000
  0
POLYLINE
  8
FEATURES
 62
     0
  6
CONTINUOUS
 66
     1
 40
0.000000
 41
0.000000
  0
VERTEX
  8
FEATURES
 62
     0
  6
CONTINUOUS
 10
140.600000
 20
96.100000
  0
VERTEX
  8
FEATURES
 62
     0
  6
CONTINUOUS
 10
139.900000
 20
96.800000
  0
VERTEX
  8
FEATURES
 62
     0
  6
CONTINUOUS
 10
140.600000
 20
97.500000
  0
VERTEX
  8
FEATURES
 62
     0
  6
CONTINUOUS
 10
142.000000
 20
96.100000
  0
VERTEX
  8
FEATURES
 62
     0
  6
CONTINUOUS
 10
141.300000
 20
95.400000
  0
VERTEX
  8
FEATURES
 62
     0
  6
CONTINUOUS
 10
140.600000
 20
96.100000
  0
SEQEND
  8
FEATURES
  0
LINE
  8
FEATURES
 62
     0
  6
CONTINUOUS
 10
102.200000
 20
44.200000
 11
101.500000
 21
40.200000
  0
LINE
  8
FEATURES
 62
     0
  6
CONTINUOUS
 10
102.200000
 20
44.200000
 11
102.900000
 21
48.100000
  0
LINE
  8
FEATURES
 62
     0
  6
CONTINUOUS
 10
102.200000
 20
44.200000
 11
100.200000
 21
44.500000
  0
LINE
  8
FEATURES
 62
     0
  6
CONTINUOUS
 10
75.400000
 20
24.400000
 11
76.500000
 21
20.500000
  0
LINE
  8
FEATURES
 62
     0
  6
CONTINUOUS
 10
75.400000
 20
24.400000
 11
74.400000
 21
28.200000
  0
LINE
  8
FEATURES
 62
     0
  6
CONTINUOUS
 10
75.400000
 20
24.400000
 11
73.500000
 21
23.800000
  0
LINE
  8
FEATURES
 62
     0
  6
CONTINUOUS
 10
53.200000
 20
27.500000
 11
52.700000
 21
23.500000
  0
LINE
  8
FEATURES
 62
     0
  6
CONTINUOUS
 10
53.200000
 20
27.500000
 11
53.700000
 21
31.400000
  0
LINE
  8
FEATURES
 62
     0
  6
CONTINUOUS
 10
53.200000
 20
27.500000
 11
51.200000
 21
27.700000
  0
LINE
  8
FEATURES
 62
     0
  6
CONTINUOUS
 10
69.200000
 20
21.200000
 11
69.200000
 21
17.200000
  0
LINE
  8
FEATURES
 62
     0
  6
CONTINUOUS
 10
69.200000
 20
21.200000
 11
69.200000
 21
25.200000
  0
LINE
  8
FEATURES
 62
     0
  6
CONTINUOUS
 10
69.200000
 20
21.200000
 11
67.200000
 21
21.200000
  0
POLYLINE
  8
CONTOURS
 62
     0
  6
CONTINUOUS
 66
     1
 40
0.100000
 41
0.100000
  0
VERTEX
  8
CONTOURS
 62
     0
  6
CONTINUOUS
 10
171.900000
 20
139.400000
  0
VERTEX
  8
CONTOURS
 62
     0
  6
CONTINUOUS
 10
171.200000
 20
140.200000
  0
VERTEX
  8
CONTOURS
 62
     0
  6
CONTINUOUS
 10
170.100000
 20
141.200000
  0
VERTEX
  8
CONTOURS
 62
     0
  6
CONTINUOUS
 10
168.800000
 20
142.000000
  0
VERTEX
  8
CONTOURS
 62
     0
  6
CONTINUOUS
 10
167.700000
 20
142.800000
  0
VERTEX
  8
CONTOURS
 62
     0
  6
CONTINUOUS
 10
166.400000
 20
143.600000
  0
VERTEX
  8
CONTOURS
 62
     0
  6
CONTINUOUS
 10
164.900000
 20
144.100000
  0
VERTEX
  8
CONTOURS
 62
     0
  6
CONTINUOUS
 10
163.200000
 20
144.400000
  0
VERTEX
  8
CONTOURS
 62
     0
  6
CONTINUOUS
 10
161.400000
 20
144.700000
  0
VERTEX
  8
CONTOURS
 62
     0
  6
CONTINUOUS
 10
159.600000
 20
144.900000
  0
VERTEX
  8
CONTOURS
 62
     0
  6
CONTINUOUS
 10
157.600000
 20
144.900000
  0
VERTEX
  8
CONTOURS
 62
     0
  6
CONTINUOUS
 10
155.800000
 20
144.800000
  0
VERTEX
  8
CONTOURS
 62
     0
  6
CONTINUOUS
 10
154.000000
 20
144.500000
  0
VERTEX
  8
CONTOURS
 62
     0
  6
CONTINUOUS
 10
152.200000
 20
144.200000
  0
VERTEX
  8
CONTOURS
 62
     0
  6
CONTINUOUS
 10
150.400000
 20
143.900000
  0
VERTEX
  8
CONTOURS
 62
     0
  6
CONTINUOUS
 10
148.800000
 20
143.600000
  0
VERTEX
  8
CONTOURS
 62
     0
  6
CONTINUOUS
 10
147.100000
 20
143.200000
  0
VERTEX
  8
CONTOURS
 62
     0
  6
CONTINUOUS
 10
145.300000
 20
142.800000
  0
VERTEX
  8
CONTOURS
 62
     0
  6
CONTINUOUS
 10
143.700000
 20
142.400000
  0
VERTEX
  8
CONTOURS
 62
     0
  6
CONTINUOUS
 10
141.900000
 20
142.000000
  0
VERTEX
  8
CONTOURS
 62
     0
  6
CONTINUOUS
 10
140.300000
 20
141.500000
  0
VERTEX
  8
CONTOURS
 62
     0
  6
CONTINUOUS
 10
138.800000
 20
140.900000
  0
VERTEX
  8
CONTOURS
 62
     0
  6
CONTINUOUS
 10
137.300000
 20
140.400000
  0
VERTEX
  8
CONTOURS
 62
     0
  6
CONTINUOUS
 10
135.800000
 20
139.700000
  0
VERTEX
  8
CONTOURS
 62
     0
  6
CONTINUOUS
 10
134.500000
 20
139.100000
  0
VERTEX
  8
CONTOURS
 62
     0
  6
CONTINUOUS
 10
133.100000
 20
138.400000
  0
VERTEX
  8
CONTOURS
 62
     0
  6
CONTINUOUS
 10
131.600000
 20
137.700000
  0
VERTEX
  8
CONTOURS
 62
     0
  6
CONTINUOUS
 10
130.100000
 20
137.100000
  0
VERTEX
  8
CONTOURS
 62
     0
  6
CONTINUOUS
 10
128.600000
 20
136.400000
  0
VERTEX
  8
CONTOURS
 62
     0
  6
CONTINUOUS
 10
127.000000
 20
135.900000
  0
VERTEX
  8
CONTOURS
 62
     0
  6
CONTINUOUS
 10
125.400000
 20
135.300000
  0
VERTEX
  8
CONTOURS
 62
     0
  6
CONTINUOUS
 10
123.900000
 20
134.700000
  0
VERTEX
  8
CONTOURS
 62
     0
  6
CONTINUOUS
 10
122.400000
 20
134.100000
  0
VERTEX
  8
CONTOURS
 62
     0
  6
CONTINUOUS
 10
120.900000
 20
133.400000
  0
VERTEX
  8
CONTOURS
 62
     0
  6
CONTINUOUS
 10
119.400000
 20
132.900000
  0
VERTEX
  8
CONTOURS
 62
     0
  6
CONTINUOUS
 10
117.900000
 20
132.300000
  0
VERTEX
  8
CONTOURS
 62
     0
  6
CONTINUOUS
 10
116.400000
 20
131.700000
  0
VERTEX
  8
CONTOURS
 62
     0
  6
CONTINUOUS
 10
114.800000
 20
131.200000
  0
VERTEX
  8
CONTOURS
 62
     0
  6
CONTINUOUS
 10
113.300000
 20
130.700000
  0
VERTEX
  8
CONTOURS
 62
     0
  6
CONTINUOUS
 10
111.700000
 20
130.200000
  0
VERTEX
  8
CONTOURS
 62
     0
  6
CONTINUOUS
 10
110.000000
 20
129.700000
  0
VERTEX
  8
CONTOURS
 62
     0
  6
CONTINUOUS
 10
108.400000
 20
129.400000
  0
VERTEX
  8
CONTOURS
 62
     0
  6
CONTINUOUS
 10
106.500000
 20
129.200000
  0
VERTEX
  8
CONTOURS
 62
     0
  6
CONTINUOUS
 10
104.600000
 20
129.200000
  0
VERTEX
  8
CONTOURS
 62
     0
  6
CONTINUOUS
 10
102.700000
 20
129.400000
  0
VERTEX
  8
CONTOURS
 62
     0
  6
CONTINUOUS
 10
100.900000
 20
129.600000
  0
VERTEX
  8
CONTOURS
 62
     0
  6
CONTINUOUS
 10
99.100000
 20
130.000000
  0
VERTEX
  8
CONTOURS
 62
     0
  6
CONTINUOUS
 10
97.600000
 20
130.500000
  0
VERTEX
  8
CONTOURS
 62
     0
  6
CONTINUOUS
 10
96.200000
 20
131.100000
  0
VERTEX
  8
CONTOURS
 62
     0
  6
CONTINUOUS
 10
94.800000
 20
131.700000
  0
VERTEX
  8
CONTOURS
 62
     0
  6
CONTINUOUS
 10
93.500000
 20
132.500000
  0
VERTEX
  8
CONTOURS
 62
     0
  6
CONTINUOUS
 10
92.200000
 20
133.300000
  0
VERTEX
  8
CONTOURS
 62
     0
  6
CONTINUOUS
 10
91.000000
 20
134.100000
  0
VERTEX
  8
CONTOURS
 62
     0
  6
CONTINUOUS
 10
89.900000
 20
135.100000
  0
VERTEX
  8
CONTOURS
 62
     0
  6
CONTINUOUS
 10
88.800000
 20
136.200000
  0
VERTEX
  8
CONTOURS
 62
     0
  6
CONTINUOUS
 10
87.700000
 20
137.200000
  0
VERTEX
  8
CONTOURS
 62
     0
  6
CONTINUOUS
 10
86.600000
 20
138.100000
  0
VERTEX
  8
CONTOURS
 62
     0
  6
CONTINUOUS
 10
85.600000
 20
139.200000
  0
VERTEX
  8
CONTOURS
 62
     0
  6
CONTINUOUS
 10
84.600000
 20
140.300000
  0
VERTEX
  8
CONTOURS
 62
     0
  6
CONTINUOUS
 10
83.500000
 20
141.200000
  0
VERTEX
  8
CONTOURS
 62
     0
  6
CONTINUOUS
 10
82.300000
 20
142.200000
  0
VERTEX
  8
CONTOURS
 62
     0
  6
CONTINUOUS
 10
81.300000
 20
143.200000
  0
VERTEX
  8
CONTOURS
 62
     0
  6
CONTINUOUS
 10
80.100000
 20
144.100000
  0
VERTEX
  8
CONTOURS
 62
     0
  6
CONTINUOUS
 10
79.000000
 20
145.100000
  0
VERTEX
  8
CONTOURS
 62
     0
  6
CONTINUOUS
 10
77.800000
 20
146.100000
  0
VERTEX
  8
CONTOURS
 62
     0
  6
CONTINUOUS
 10
76.600000
 20
147.100000
  0
VERTEX
  8
CONTOURS
 62
     0
  6
CONTINUOUS
 10
75.600000
 20
148.100000
  0
VERTEX
  8
CONTOURS
 62
     0
  6
CONTINUOUS
 10
74.700000
 20
149.200000
  0
VERTEX
  8
CONTOURS
 62
     0
  6
CONTINUOUS
 10
73.700000
 20
150.300000
  0
VERTEX
  8
CONTOURS
 62
     0
  6
CONTINUOUS
 10
72.600000
 20
151.500000
  0
VERTEX
  8
CONTOURS
 62
     0
  6
CONTINUOUS
 10
71.600000
 20
152.500000
  0
VERTEX
  8
CONTOURS
 62
     0
  6
CONTINUOUS
 10
70.500000
 20
153.700000
  0
VERTEX
  8
CONTOURS
 62
     0
  6
CONTINUOUS
 10
69.600000
 20
154.800000
  0
VERTEX
  8
CONTOURS
 62
     0
  6
CONTINUOUS
 10
68.600000
 20
155.900000
  0
VERTEX
  8
CONTOURS
 62
     0
  6
CONTINUOUS
 10
67.600000
 20
156.900000
  0
VERTEX
  8
CONTOURS
 62
     0
  6
CONTINUOUS
 10
66.600000
 20
158.000000
  0
VERTEX
  8
CONTOURS
 62
     0
  6
CONTINUOUS
 10
65.600000
 20
159.100000
  0
VERTEX
  8
CONTOURS
 62
     0
  6
CONTINUOUS
 10
64.600000
 20
160.100000
  0
VERTEX
  8
CONTOURS
 62
     0
  6
CONTINUOUS
 10
63.600000
 20
161.200000
  0
VERTEX
  8
CONTOURS
 62
     0
  6
CONTINUOUS
 10
62.600000
 20
162.200000
  0
VERTEX
  8
CONTOURS
 62
     0
  6
CONTINUOUS
 10
61.500000
 20
163.300000
  0
VERTEX
  8
CONTOURS
 62
     0
  6
CONTINUOUS
 10
60.500000
 20
164.300000
  0
VERTEX
  8
CONTOURS
 62
     0
  6
CONTINUOUS
 10
59.500000
 20
165.300000
  0
VERTEX
  8
CONTOURS
 62
     0
  6
CONTINUOUS
 10
58.500000
 20
166.300000
  0
VERTEX
  8
CONTOURS
 62
     0
  6
CONTINUOUS
 10
57.500000
 20
167.300000
  0
VERTEX
  8
CONTOURS
 62
     0
  6
CONTINUOUS
 10
56.400000
 20
168.400000
  0
VERTEX
  8
CONTOURS
 62
     0
  6
CONTINUOUS
 10
55.400000
 20
169.500000
  0
VERTEX
  8
CONTOURS
 62
     0
  6
CONTINUOUS
 10
54.400000
 20
170.500000
  0
VERTEX
  8
CONTOURS
 62
     0
  6
CONTINUOUS
 10
53.500000
 20
171.600000
  0
VERTEX
  8
CONTOURS
 62
     0
  6
CONTINUOUS
 10
52.500000
 20
172.800000
  0
VERTEX
  8
CONTOURS
 62
     0
  6
CONTINUOUS
 10
51.600000
 20
174.000000
  0
VERTEX
  8
CONTOURS
 62
     0
  6
CONTINUOUS
 10
50.700000
 20
175.200000
  0
VERTEX
  8
CONTOURS
 62
     0
  6
CONTINUOUS
 10
49.800000
 20
176.400000
  0
VERTEX
  8
CONTOURS
 62
     0
  6
CONTINUOUS
 10
49.100000
 20
177.600000
  0
VERTEX
  8
CONTOURS
 62
     0
  6
CONTINUOUS
 10
48.300000
 20
178.900000
  0
VERTEX
  8
CONTOURS
 62
     0
  6
CONTINUOUS
 10
47.500000
 20
180.200000
  0
VERTEX
  8
CONTOURS
 62
     0
  6
CONTINUOUS
 10
46.800000
 20
181.600000
  0
VERTEX
  8
CONTOURS
 62
     0
  6
CONTINUOUS
 10
46.100000
 20
182.900000
  0
VERTEX
  8
CONTOURS
 62
     0
  6
CONTINUOUS
 10
45.200000
 20
184.300000
  0
VERTEX
  8
CONTOURS
 62
     0
  6
CONTINUOUS
 10
44.900000
 20
185.000000
  0
SEQEND
  8
CONTOURS
  0
POLYLINE
  8
CONTOURS
 62
     0
  6
CONTINUOUS
 66
     1
 40
0.100000
 41
0.100000
  0
VERTEX
  8
CONTOURS
 62
     0
  6
CONTINUOUS
 10
79.600000
 20
2.000000
  0
VERTEX
  8
CONTOURS
 62
     0
  6
CONTINUOUS
 10
79.800000
 20
2.900000
  0
VERTEX
  8
CONTOURS
 62
     0
  6
CONTINUOUS
 10
80.200000
 20
4.700000
  0
VERTEX
  8
CONTOURS
 62
     0
  6
CONTINUOUS
 10
80.700000
 20
6.300000
  0
VERTEX
  8
CONTOURS
 62
     0
  6
CONTINUOUS
 10
81.200000
 20
7.900000
  0
VERTEX
  8
CONTOURS
 62
     0
  6
CONTINUOUS
 10
81.600000
 20
9.500000
  0
VERTEX
  8
CONTOURS
 62
     0
  6
CONTINUOUS
 10
82.000000
 20
11.200000
  0
VERTEX
  8
CONTOURS
 62
     0
  6
CONTINUOUS
 10
82.400000
 20
12.900000
  0
VERTEX
  8
CONTOURS
 62
     0
  6
CONTINUOUS
 10
82.700000
 20
14.700000
  0
VERTEX
  8
CONTOURS
 62
     0
  6
CONTINUOUS
 10
82.800000
 20
16.600000
  0
VERTEX
  8
CONTOURS
 62
     0
  6
CONTINUOUS
 10
82.900000
 20
18.600000
  0
VERTEX
  8
CONTOURS
 62
     0
  6
CONTINUOUS
 10
83.000000
 20
20.600000
  0
VERTEX
  8
CONTOURS
 62
     0
  6
CONTINUOUS
 10
83.000000
 20
22.600000
  0
VERTEX
  8
CONTOURS
 62
     0
  6
CONTINUOUS
 10
82.800000
 20
24.600000
  0
VERTEX
  8
CONTOURS
 62
     0
  6
CONTINUOUS
 10
82.600000
 20
26.300000
  0
VERTEX
  8
CONTOURS
 62
     0
  6
CONTINUOUS
 10
82.400000
 20
28.100000
  0
VERTEX
  8
CONTOURS
 62
     0
  6
CONTINUOUS
 10
81.900000
 20
29.700000
  0
VERTEX
  8
CONTOURS
 62
     0
  6
CONTINUOUS
 10
81.200000
 20
31.200000
  0
VERTEX
  8
CONTOURS
 62
     0
  6
CONTINUOUS
 10
80.600000
 20
32.600000
  0
VERTEX
  8
CONTOURS
 62
     0
  6
CONTINUOUS
 10
79.900000
 20
33.800000
  0
VERTEX
  8
CONTOURS
 62
     0
  6
CONTINUOUS
 10
78.900000
 20
35.000000
  0
VERTEX
  8
CONTOURS
 62
     0
  6
CONTINUOUS
 10
78.000000
 20
36.100000
  0
VERTEX
  8
CONTOURS
 62
     0
  6
CONTINUOUS
 10
76.900000
 20
37.100000
  0
VERTEX
  8
CONTOURS
 62
     0
  6
CONTINUOUS
 10
75.900000
 20
38.100000
  0
VERTEX
  8
CONTOURS
 62
     0
  6
CONTINUOUS
 10
74.900000
 20
39.100000
  0
VERTEX
  8
CONTOURS
 62
     0
  6
CONTINUOUS
 10
73.800000
 20
40.100000
  0
VERTEX
  8
CONTOURS
 62
     0
  6
CONTINUOUS
 10
72.600000
 20
40.800000
  0
VERTEX
  8
CONTOURS
 62
     0
  6
CONTINUOUS
 10
71.300000
 20
41.700000
  0
VERTEX
  8
CONTOURS
 62
     0
  6
CONTINUOUS
 10
69.900000
 20
42.400000
  0
VERTEX
  8
CONTOURS
 62
     0
  6
CONTINUOUS
 10
68.500000
 20
43.100000
  0
VERTEX
  8
CONTOURS
 62
     0
  6
CONTINUOUS
 10
67.200000
 20
43.900000
  0
VERTEX
  8
CONTOURS
 62
     0
  6
CONTINUOUS
 10
65.900000
 20
44.600000
  0
VERTEX
  8
CONTOURS
 62
     0
  6
CONTINUOUS
 10
64.500000
 20
45.200000
  0
VERTEX
  8
CONTOURS
 62
     0
  6
CONTINUOUS
 10
63.100000
 20
45.900000
  0
VERTEX
  8
CONTOURS
 62
     0
  6
CONTINUOUS
 10
61.600000
 20
46.500000
  0
VERTEX
  8
CONTOURS
 62
     0
  6
CONTINUOUS
 10
60.100000
 20
47.000000
  0
VERTEX
  8
CONTOURS
 62
     0
  6
CONTINUOUS
 10
58.400000
 20
47.500000
  0
VERTEX
  8
CONTOURS
 62
     0
  6
CONTINUOUS
 10
56.700000
 20
47.800000
  0
VERTEX
  8
CONTOURS
 62
     0
  6
CONTINUOUS
 10
54.900000
 20
48.000000
  0
VERTEX
  8
CONTOURS
 62
     0
  6
CONTINUOUS
 10
53.100000
 20
48.200000
  0
VERTEX
  8
CONTOURS
 62
     0
  6
CONTINUOUS
 10
51.200000
 20
48.300000
  0
VERTEX
  8
CONTOURS
 62
     0
  6
CONTINUOUS
 10
49.200000
 20
48.100000
  0
VERTEX
  8
CONTOURS
 62
     0
  6
CONTINUOUS
 10
47.300000
 20
47.900000
  0
VERTEX
  8
CONTOURS
 62
     0
  6
CONTINUOUS
 10
45.500000
 20
47.700000
  0
VERTEX
  8
CONTOURS
 62
     0
  6
CONTINUOUS
 10
43.800000
 20
47.400000
  0
VERTEX
  8
CONTOURS
 62
     0
  6
CONTINUOUS
 10
42.100000
 20
47.000000
  0
VERTEX
  8
CONTOURS
 62
     0
  6
CONTINUOUS
 10
40.300000
 20
46.700000
  0
VERTEX
  8
CONTOURS
 62
     0
  6
CONTINUOUS
 10
38.700000
 20
46.300000
  0
VERTEX
  8
CONTOURS
 62
     0
  6
CONTINUOUS
 10
37.100000
 20
45.900000
  0
VERTEX
  8
CONTOURS
 62
     0
  6
CONTINUOUS
 10
35.600000
 20
45.400000
  0
VERTEX
  8
CONTOURS
 62
     0
  6
CONTINUOUS
 10
34.000000
 20
44.900000
  0
VERTEX
  8
CONTOURS
 62
     0
  6
CONTINUOUS
 10
32.600000
 20
44.300000
  0
VERTEX
  8
CONTOURS
 62
     0
  6
CONTINUOUS
 10
31.200000
 20
43.600000
  0
VERTEX
  8
CONTOURS
 62
     0
  6
CONTINUOUS
 10
29.800000
 20
43.100000
  0
VERTEX
  8
CONTOURS
 62
     0
  6
CONTINUOUS
 10
28.200000
 20
42.500000
  0
VERTEX
  8
CONTOURS
 62
     0
  6
CONTINUOUS
 10
26.700000
 20
42.000000
  0
VERTEX
  8
CONTOURS
 62
     0
  6
CONTINUOUS
 10
25.100000
 20
41.500000
  0
VERTEX
  8
CONTOURS
 62
     0
  6
CONTINUOUS
 10
23.300000
 20
41.300000
  0
VERTEX
  8
CONTOURS
 62
     0
  6
CONTINUOUS
 10
21.600000
 20
41.600000
  0
VERTEX
  8
CONTOURS
 62
     0
  6
CONTINUOUS
 10
19.800000
 20
42.100000
  0
VERTEX
  8
CONTOURS
 62
     0
  6
CONTINUOUS
 10
18.500000
 20
42.900000
  0
VERTEX
  8
CONTOURS
 62
     0
  6
CONTINUOUS
 10
17.400000
 20
43.900000
  0
VERTEX
  8
CONTOURS
 62
     0
  6
CONTINUOUS
 10
16.900000
 20
44.400000
  0
SEQEND
  8
CONTOURS
  0
POLYLINE
  8
CONTOURS
 62
     0
  6
CONTINUOUS
 66
     1
 40
0.100000
 41
0.100000
  0
VERTEX
  8
CONTOURS
 62
     0
  6
CONTINUOUS
 10
64.000000
 20
2.000000
  0
VERTEX
  8
CONTOURS
 62
     0
  6
CONTINUOUS
 10
64.200000
 20
2.800000
  0
VERTEX
  8
CONTOURS
 62
     0
  6
CONTINUOUS
 10
64.700000
 20
4.500000
  0
VERTEX
  8
CONTOURS
 62
     0
  6
CONTINUOUS
 10
65.200000
 20
6.100000
  0
VERTEX
  8
CONTOURS
 62
     0
  6
CONTINUOUS
 10
65.600000
 20
7.800000
  0
VERTEX
  8
CONTOURS
 62
     0
  6
CONTINUOUS
 10
65.900000
 20
9.600000
  0
VERTEX
  8
CONTOURS
 62
     0
  6
CONTINUOUS
 10
66.100000
 20
11.500000
  0
VERTEX
  8
CONTOURS
 62
     0
  6
CONTINUOUS
 10
66.300000
 20
13.400000
  0
VERTEX
  8
CONTOURS
 62
     0
  6
CONTINUOUS
 10
66.300000
 20
15.500000
  0
VERTEX
  8
CONTOURS
 62
     0
  6
CONTINUOUS
 10
66.400000
 20
17.400000
  0
VERTEX
  8
CONTOURS
 62
     0
  6
CONTINUOUS
 10
66.200000
 20
19.300000
  0
VERTEX
  8
CONTOURS
 62
     0
  6
CONTINUOUS
 10
65.900000
 20
21.100000
  0
VERTEX
  8
CONTOURS
 62
     0
  6
CONTINUOUS
 10
65.400000
 20
22.600000
  0
VERTEX
  8
CONTOURS
 62
     0
  6
CONTINUOUS
 10
64.800000
 20
23.900000
  0
VERTEX
  8
CONTOURS
 62
     0
  6
CONTINUOUS
 10
63.900000
 20
25.100000
  0
VERTEX
  8
CONTOURS
 62
     0
  6
CONTINUOUS
 10
63.000000
 20
26.200000
  0
VERTEX
  8
CONTOURS
 62
     0
  6
CONTINUOUS
 10
62.100000
 20
27.300000
  0
VERTEX
  8
CONTOURS
 62
     0
  6
CONTINUOUS
 10
61.200000
 20
28.400000
  0
VERTEX
  8
CONTOURS
 62
     0
  6
CONTINUOUS
 10
60.200000
 20
29.400000
  0
VERTEX
  8
CONTOURS
 62
     0
  6
CONTINUOUS
 10
59.100000
 20
30.300000
  0
VERTEX
  8
CONTOURS
 62
     0
  6
CONTINUOUS
 10
57.700000
 20
30.900000
  0
VERTEX
  8
CONTOURS
 62
     0
  6
CONTINUOUS
 10
56.100000
 20
31.300000
  0
VERTEX
  8
CONTOURS
 62
     0
  6
CONTINUOUS
 10
54.200000
 20
31.600000
  0
VERTEX
  8
CONTOURS
 62
     0
  6
CONTINUOUS
 10
52.300000
 20
31.700000
  0
VERTEX
  8
CONTOURS
 62
     0
  6
CONTINUOUS
 10
50.300000
 20
31.700000
  0
VERTEX
  8
CONTOURS
 62
     0
  6
CONTINUOUS
 10
48.500000
 20
31.600000
  0
VERTEX
  8
CONTOURS
 62
     0
  6
CONTINUOUS
 10
46.700000
 20
31.300000
  0
VERTEX
  8
CONTOURS
 62
     0
  6
CONTINUOUS
 10
44.900000
 20
31.200000
  0
VERTEX
  8
CONTOURS
 62
     0
  6
CONTINUOUS
 10
43.100000
 20
30.900000
  0
VERTEX
  8
CONTOURS
 62
     0
  6
CONTINUOUS
 10
41.200000
 20
30.700000
  0
VERTEX
  8
CONTOURS
 62
     0
  6
CONTINUOUS
 10
39.300000
 20
30.600000
  0
VERTEX
  8
CONTOURS
 62
     0
  6
CONTINUOUS
 10
37.300000
 20
30.400000
  0
VERTEX
  8
CONTOURS
 62
     0
  6
CONTINUOUS
 10
35.600000
 20
30.200000
  0
VERTEX
  8
CONTOURS
 62
     0
  6
CONTINUOUS
 10
33.600000
 20
30.000000
  0
VERTEX
  8
CONTOURS
 62
     0
  6
CONTINUOUS
 10
31.600000
 20
29.900000
  0
VERTEX
  8
CONTOURS
 62
     0
  6
CONTINUOUS
 10
29.600000
 20
30.000000
  0
VERTEX
  8
CONTOURS
 62
     0
  6
CONTINUOUS
 10
27.700000
 20
30.200000
  0
VERTEX
  8
CONTOURS
 62
     0
  6
CONTINUOUS
 10
25.900000
 20
30.400000
  0
VERTEX
  8
CONTOURS
 62
     0
  6
CONTINUOUS
 10
24.100000
 20
30.900000
  0
VERTEX
  8
CONTOURS
 62
     0
  6
CONTINUOUS
 10
22.400000
 20
31.300000
  0
VERTEX
  8
CONTOURS
 62
     0
  6
CONTINUOUS
 10
20.800000
 20
31.900000
  0
VERTEX
  8
CONTOURS
 62
     0
  6
CONTINUOUS
 10
19.400000
 20
32.500000
  0
VERTEX
  8
CONTOURS
 62
     0
  6
CONTINUOUS
 10
18.000000
 20
33.100000
  0
VERTEX
  8
CONTOURS
 62
     0
  6
CONTINUOUS
 10
16.900000
 20
33.600000
  0
SEQEND
  8
CONTOURS
  0
POLYLINE
  8
CONTOURS
 62
     0
  6
CONTINUOUS
 66
     1
 40
0.100000
 41
0.100000
  0
VERTEX
  8
CONTOURS
 62
     0
  6
CONTINUOUS
 10
42.400000
 20
2.000000
  0
VERTEX
  8
CONTOURS
 62
     0
  6
CONTINUOUS
 10
42.500000
 20
3.800000
  0
VERTEX
  8
CONTOURS
 62
     0
  6
CONTINUOUS
 10
42.500000
 20
5.800000
  0
VERTEX
  8
CONTOURS
 62
     0
  6
CONTINUOUS
 10
42.400000
 20
7.700000
  0
VERTEX
  8
CONTOURS
 62
     0
  6
CONTINUOUS
 10
42.100000
 20
9.500000
  0
VERTEX
  8
CONTOURS
 62
     0
  6
CONTINUOUS
 10
41.600000
 20
11.000000
  0
VERTEX
  8
CONTOURS
 62
     0
  6
CONTINUOUS
 10
40.900000
 20
12.400000
  0
VERTEX
  8
CONTOURS
 62
     0
  6
CONTINUOUS
 10
39.900000
 20
13.400000
  0
VERTEX
  8
CONTOURS
 62
     0
  6
CONTINUOUS
 10
38.700000
 20
14.200000
  0
VERTEX
  8
CONTOURS
 62
     0
  6
CONTINUOUS
 10
37.400000
 20
15.000000
  0
VERTEX
  8
CONTOURS
 62
     0
  6
CONTINUOUS
 10
36.000000
 20
15.600000
  0
VERTEX
  8
CONTOURS
 62
     0
  6
CONTINUOUS
 10
34.400000
 20
16.100000
  0
VERTEX
  8
CONTOURS
 62
     0
  6
CONTINUOUS
 10
32.800000
 20
16.500000
  0
VERTEX
  8
CONTOURS
 62
     0
  6
CONTINUOUS
 10
31.200000
 20
17.000000
  0
VERTEX
  8
CONTOURS
 62
     0
  6
CONTINUOUS
 10
29.500000
 20
17.400000
  0
VERTEX
  8
CONTOURS
 62
     0
  6
CONTINUOUS
 10
27.900000
 20
17.800000
  0
VERTEX
  8
CONTOURS
 62
     0
  6
CONTINUOUS
 10
26.400000
 20
18.400000
  0
VERTEX
  8
CONTOURS
 62
     0
  6
CONTINUOUS
 10
25.000000
 20
19.100000
  0
VERTEX
  8
CONTOURS
 62
     0
  6
CONTINUOUS
 10
23.500000
 20
19.700000
  0
VERTEX
  8
CONTOURS
 62
     0
  6
CONTINUOUS
 10
22.300000
 20
20.500000
  0
VERTEX
  8
CONTOURS
 62
     0
  6
CONTINUOUS
 10
20.900000
 20
21.200000
  0
VERTEX
  8
CONTOURS
 62
     0
  6
CONTINUOUS
 10
19.500000
 20
21.800000
  0
VERTEX
  8
CONTOURS
 62
     0
  6
CONTINUOUS
 10
18.100000
 20
22.400000
  0
VERTEX
  8
CONTOURS
 62
     0
  6
CONTINUOUS
 10
16.900000
 20
22.900000
  0
SEQEND
  8
CONTOURS
  0
POLYLINE
  8
CONTOURS
 62
     0
  6
CONTINUOUS
 66
     1
 40
0.100000
 41
0.100000
  0
VERTEX
  8
CONTOURS
 62
     0
  6
CONTINUOUS
 10
154.700000
 20
185.000000
  0
VERTEX
  8
CONTOURS
 62
     0
  6
CONTINUOUS
 10
153.900000
 20
184.500000
  0
VERTEX
  8
CONTOURS
 62
     0
  6
CONTINUOUS
 10
152.400000
 20
183.900000
  0
VERTEX
  8
CONTOURS
 62
     0
  6
CONTINUOUS
 10
150.800000
 20
183.300000
  0
VERTEX
  8
CONTOURS
 62
     0
  6
CONTINUOUS
 10
149.300000
 20
182.800000
  0
VERTEX
  8
CONTOURS
 62
     0
  6
CONTINUOUS
 10
147.700000
 20
182.400000
  0
VERTEX
  8
CONTOURS
 62
     0
  6
CONTINUOUS
 10
146.100000
 20
182.000000
  0
VERTEX
  8
CONTOURS
 62
     0
  6
CONTINUOUS
 10
144.500000
 20
181.600000
  0
VERTEX
  8
CONTOURS
 62
     0
  6
CONTINUOUS
 10
129.400000
 20
178.700000
  0
VERTEX
  8
CONTOURS
 62
     0
  6
CONTINUOUS
 10
127.800000
 20
178.400000
  0
VERTEX
  8
CONTOURS
 62
     0
  6
CONTINUOUS
 10
126.000000
 20
178.100000
  0
VERTEX
  8
CONTOURS
 62
     0
  6
CONTINUOUS
 10
124.400000
 20
177.700000
  0
VERTEX
  8
CONTOURS
 62
     0
  6
CONTINUOUS
 10
122.500000
 20
177.400000
  0
VERTEX
  8
CONTOURS
 62
     0
  6
CONTINUOUS
 10
120.700000
 20
177.200000
  0
VERTEX
  8
CONTOURS
 62
     0
  6
CONTINUOUS
 10
118.800000
 20
177.000000
  0
VERTEX
  8
CONTOURS
 62
     0
  6
CONTINUOUS
 10
106.200000
 20
177.200000
  0
VERTEX
  8
CONTOURS
 62
     0
  6
CONTINUOUS
 10
104.500000
 20
177.700000
  0
VERTEX
  8
CONTOURS
 62
     0
  6
CONTINUOUS
 10
103.000000
 20
178.200000
  0
VERTEX
  8
CONTOURS
 62
     0
  6
CONTINUOUS
 10
101.500000
 20
178.900000
  0
VERTEX
  8
CONTOURS
 62
     0
  6
CONTINUOUS
 10
100.200000
 20
179.600000
  0
VERTEX
  8
CONTOURS
 62
     0
  6
CONTINUOUS
 10
98.800000
 20
180.300000
  0
VERTEX
  8
CONTOURS
 62
     0
  6
CONTINUOUS
 10
93.900000
 20
185.000000
  0
SEQEND
  8
CONTOURS
  0
POLYLINE
  8
CONTOURS
 62
     0
  6
CONTINUOUS
 66
     1
 40
0.100000
 41
0.100000
  0
VERTEX
  8
CONTOURS
 62
     0
  6
CONTINUOUS
 10
171.900000
 20
173.200000
  0
VERTEX
  8
CONTOURS
 62
     0
  6
CONTINUOUS
 10
170.800000
 20
173.300000
  0
VERTEX
  8
CONTOURS
 62
     0
  6
CONTINUOUS
 10
168.800000
 20
173.200000
  0
VERTEX
  8
CONTOURS
 62
     0
  6
CONTINUOUS
 10
166.800000
 20
173.200000
  0
VERTEX
  8
CONTOURS
 62
     0
  6
CONTINUOUS
 10
164.900000
 20
173.200000
  0
VERTEX
  8
CONTOURS
 62
     0
  6
CONTINUOUS
 10
155.900000
 20
171.500000
  0
VERTEX
  8
CONTOURS
 62
     0
  6
CONTINUOUS
 10
154.200000
 20
171.100000
  0
VERTEX
  8
CONTOURS
 62
     0
  6
CONTINUOUS
 10
152.600000
 20
170.700000
  0
VERTEX
  8
CONTOURS
 62
     0
  6
CONTINUOUS
 10
151.100000
 20
170.200000
  0
VERTEX
  8
CONTOURS
 62
     0
  6
CONTINUOUS
 10
149.400000
 20
169.800000
  0
VERTEX
  8
CONTOURS
 62
     0
  6
CONTINUOUS
 10
147.900000
 20
169.300000
  0
VERTEX
  8
CONTOURS
 62
     0
  6
CONTINUOUS
 10
146.400000
 20
168.900000
  0
VERTEX
  8
CONTOURS
 62
     0
  6
CONTINUOUS
 10
145.000000
 20
168.300000
  0
VERTEX
  8
CONTOURS
 62
     0
  6
CONTINUOUS
 10
129.500000
 20
163.300000
  0
VERTEX
  8
CONTOURS
 62
     0
  6
CONTINUOUS
 10
128.000000
 20
162.800000
  0
VERTEX
  8
CONTOURS
 62
     0
  6
CONTINUOUS
 10
126.500000
 20
162.300000
  0
VERTEX
  8
CONTOURS
 62
     0
  6
CONTINUOUS
 10
124.900000
 20
161.800000
  0
VERTEX
  8
CONTOURS
 62
     0
  6
CONTINUOUS
 10
123.400000
 20
161.300000
  0
VERTEX
  8
CONTOURS
 62
     0
  6
CONTINUOUS
 10
121.900000
 20
160.800000
  0
VERTEX
  8
CONTOURS
 62
     0
  6
CONTINUOUS
 10
120.200000
 20
160.400000
  0
VERTEX
  8
CONTOURS
 62
     0
  6
CONTINUOUS
 10
118.600000
 20
160.000000
  0
VERTEX
  8
CONTOURS
 62
     0
  6
CONTINUOUS
 10
105.900000
 20
158.600000
  0
VERTEX
  8
CONTOURS
 62
     0
  6
CONTINUOUS
 10
104.200000
 20
158.900000
  0
VERTEX
  8
CONTOURS
 62
     0
  6
CONTINUOUS
 10
102.300000
 20
159.000000
  0
VERTEX
  8
CONTOURS
 62
     0
  6
CONTINUOUS
 10
100.500000
 20
159.300000
  0
VERTEX
  8
CONTOURS
 62
     0
  6
CONTINUOUS
 10
98.800000
 20
159.700000
  0
VERTEX
  8
CONTOURS
 62
     0
  6
CONTINUOUS
 10
97.300000
 20
160.300000
  0
VERTEX
  8
CONTOURS
 62
     0
  6
CONTINUOUS
 10
87.300000
 20
164.900000
  0
VERTEX
  8
CONTOURS
 62
     0
  6
CONTINUOUS
 10
86.200000
 20
165.900000
  0
VERTEX
  8
CONTOURS
 62
     0
  6
CONTINUOUS
 10
85.000000
 20
166.900000
  0
VERTEX
  8
CONTOURS
 62
     0
  6
CONTINUOUS
 10
83.900000
 20
167.900000
  0
VERTEX
  8
CONTOURS
 62
     0
  6
CONTINUOUS
 10
82.800000
 20
168.900000
  0
VERTEX
  8
CONTOURS
 62
     0
  6
CONTINUOUS
 10
81.800000
 20
169.900000
  0
VERTEX
  8
CONTOURS
 62
     0
  6
CONTINUOUS
 10
80.700000
 20
170.900000
  0
VERTEX
  8
CONTOURS
 62
     0
  6
CONTINUOUS
 10
79.700000
 20
171.900000
  0
VERTEX
  8
CONTOURS
 62
     0
  6
CONTINUOUS
 10
78.600000
 20
172.900000
  0
VERTEX
  8
CONTOURS
 62
     0
  6
CONTINUOUS
 10
66.400000
 20
185.000000
  0
SEQEND
  8
CONTOURS
  0
POLYLINE
  8
CONTOURS
 62
     0
  6
CONTINUOUS
 66
     1
 40
0.100000
 41
0.100000
  0
VERTEX
  8
CONTOURS
 62
     0
  6
CONTINUOUS
 10
171.900000
 20
107.600000
  0
VERTEX
  8
CONTOURS
 62
     0
  6
CONTINUOUS
 10
166.800000
 20
109.500000
  0
VERTEX
  8
CONTOURS
 62
     0
  6
CONTINUOUS
 10
165.400000
 20
109.800000
  0
VERTEX
  8
CONTOURS
 62
     0
  6
CONTINUOUS
 10
163.700000
 20
110.200000
  0
VERTEX
  8
CONTOURS
 62
     0
  6
CONTINUOUS
 10
162.400000
 20
110.900000
  0
VERTEX
  8
CONTOURS
 62
     0
  6
CONTINUOUS
 10
161.100000
 20
111.600000
  0
VERTEX
  8
CONTOURS
 62
     0
  6
CONTINUOUS
 10
160.000000
 20
112.500000
  0
VERTEX
  8
CONTOURS
 62
     0
  6
CONTINUOUS
 10
158.800000
 20
113.400000
  0
VERTEX
  8
CONTOURS
 62
     0
  6
CONTINUOUS
 10
157.700000
 20
114.400000
  0
VERTEX
  8
CONTOURS
 62
     0
  6
CONTINUOUS
 10
156.700000
 20
115.400000
  0
VERTEX
  8
CONTOURS
 62
     0
  6
CONTINUOUS
 10
155.700000
 20
116.500000
  0
VERTEX
  8
CONTOURS
 62
     0
  6
CONTINUOUS
 10
154.700000
 20
117.600000
  0
VERTEX
  8
CONTOURS
 62
     0
  6
CONTINUOUS
 10
153.600000
 20
118.600000
  0
VERTEX
  8
CONTOURS
 62
     0
  6
CONTINUOUS
 10
152.400000
 20
119.400000
  0
VERTEX
  8
CONTOURS
 62
     0
  6
CONTINUOUS
 10
151.200000
 20
120.200000
  0
VERTEX
  8
CONTOURS
 62
     0
  6
CONTINUOUS
 10
149.900000
 20
121.000000
  0
VERTEX
  8
CONTOURS
 62
     0
  6
CONTINUOUS
 10
148.400000
 20
121.500000
  0
VERTEX
  8
CONTOURS
 62
     0
  6
CONTINUOUS
 10
146.700000
 20
121.900000
  0
VERTEX
  8
CONTOURS
 62
     0
  6
CONTINUOUS
 10
145.000000
 20
122.100000
  0
VERTEX
  8
CONTOURS
 62
     0
  6
CONTINUOUS
 10
143.100000
 20
122.300000
  0
VERTEX
  8
CONTOURS
 62
     0
  6
CONTINUOUS
 10
141.100000
 20
122.300000
  0
VERTEX
  8
CONTOURS
 62
     0
  6
CONTINUOUS
 10
139.300000
 20
122.200000
  0
VERTEX
  8
CONTOURS
 62
     0
  6
CONTINUOUS
 10
137.600000
 20
121.900000
  0
VERTEX
  8
CONTOURS
 62
     0
  6
CONTINUOUS
 10
135.700000
 20
121.600000
  0
VERTEX
  8
CONTOURS
 62
     0
  6
CONTINUOUS
 10
134.000000
 20
121.300000
  0
VERTEX
  8
CONTOURS
 62
     0
  6
CONTINUOUS
 10
132.300000
 20
121.000000
  0
VERTEX
  8
CONTOURS
 62
     0
  6
CONTINUOUS
 10
130.600000
 20
120.600000
  0
VERTEX
  8
CONTOURS
 62
     0
  6
CONTINUOUS
 10
128.900000
 20
120.200000
  0
VERTEX
  8
CONTOURS
 62
     0
  6
CONTINUOUS
 10
127.200000
 20
119.800000
  0
VERTEX
  8
CONTOURS
 62
     0
  6
CONTINUOUS
 10
125.500000
 20
119.400000
  0
VERTEX
  8
CONTOURS
 62
     0
  6
CONTINUOUS
 10
123.900000
 20
118.900000
  0
VERTEX
  8
CONTOURS
 62
     0
  6
CONTINUOUS
 10
122.400000
 20
118.300000
  0
VERTEX
  8
CONTOURS
 62
     0
  6
CONTINUOUS
 10
120.900000
 20
117.800000
  0
VERTEX
  8
CONTOURS
 62
     0
  6
CONTINUOUS
 10
119.300000
 20
117.100000
  0
VERTEX
  8
CONTOURS
 62
     0
  6
CONTINUOUS
 10
118.000000
 20
116.500000
  0
VERTEX
  8
CONTOURS
 62
     0
  6
CONTINUOUS
 10
116.700000
 20
115.800000
  0
VERTEX
  8
CONTOURS
 62
     0
  6
CONTINUOUS
 10
115.200000
 20
115.200000
  0
VERTEX
  8
CONTOURS
 62
     0
  6
CONTINUOUS
 10
113.700000
 20
114.500000
  0
VERTEX
  8
CONTOURS
 62
     0
  6
CONTINUOUS
 10
112.100000
 20
113.900000
  0
VERTEX
  8
CONTOURS
 62
     0
  6
CONTINUOUS
 10
110.600000
 20
113.300000
  0
VERTEX
  8
CONTOURS
 62
     0
  6
CONTINUOUS
 10
109.000000
 20
112.700000
  0
VERTEX
  8
CONTOURS
 62
     0
  6
CONTINUOUS
 10
107.500000
 20
112.200000
  0
VERTEX
  8
CONTOURS
 62
     0
  6
CONTINUOUS
 10
106.000000
 20
111.500000
  0
VERTEX
  8
CONTOURS
 62
     0
  6
CONTINUOUS
 10
104.400000
 20
110.900000
  0
VERTEX
  8
CONTOURS
 62
     0
  6
CONTINUOUS
 10
102.900000
 20
110.300000
  0
VERTEX
  8
CONTOURS
 62
     0
  6
CONTINUOUS
 10
101.400000
 20
109.700000
  0
VERTEX
  8
CONTOURS
 62
     0
  6
CONTINUOUS
 10
99.900000
 20
109.100000
  0
VERTEX
  8
CONTOURS
 62
     0
  6
CONTINUOUS
 10
98.300000
 20
108.700000
  0
VERTEX
  8
CONTOURS
 62
     0
  6
CONTINUOUS
 10
96.800000
 20
108.100000
  0
VERTEX
  8
CONTOURS
 62
     0
  6
CONTINUOUS
 10
95.200000
 20
107.600000
  0
VERTEX
  8
CONTOURS
 62
     0
  6
CONTINUOUS
 10
93.600000
 20
107.100000
  0
VERTEX
  8
CONTOURS
 62
     0
  6
CONTINUOUS
 10
91.900000
 20
106.800000
  0
VERTEX
  8
CONTOURS
 62
     0
  6
CONTINUOUS
 10
90.100000
 20
106.700000
  0
VERTEX
  8
CONTOURS
 62
     0
  6
CONTINUOUS
 10
88.200000
 20
106.600000
  0
VERTEX
  8
CONTOURS
 62
     0
  6
CONTINUOUS
 10
86.200000
 20
106.800000
  0
VERTEX
  8
CONTOURS
 62
     0
  6
CONTINUOUS
 10
84.400000
 20
107.100000
  0
VERTEX
  8
CONTOURS
 62
     0
  6
CONTINUOUS
 10
82.700000
 20
107.400000
  0
VERTEX
  8
CONTOURS
 62
     0
  6
CONTINUOUS
 10
81.200000
 20
107.900000
  0
VERTEX
  8
CONTOURS
 62
     0
  6
CONTINUOUS
 10
79.800000
 20
108.500000
  0
VERTEX
  8
CONTOURS
 62
     0
  6
CONTINUOUS
 10
78.300000
 20
109.100000
  0
VERTEX
  8
CONTOURS
 62
     0
  6
CONTINUOUS
 10
77.000000
 20
109.900000
  0
VERTEX
  8
CONTOURS
 62
     0
  6
CONTINUOUS
 10
75.700000
 20
110.700000
  0
VERTEX
  8
CONTOURS
 62
     0
  6
CONTINUOUS
 10
74.500000
 20
111.600000
  0
VERTEX
  8
CONTOURS
 62
     0
  6
CONTINUOUS
 10
73.500000
 20
112.500000
  0
VERTEX
  8
CONTOURS
 62
     0
  6
CONTINUOUS
 10
72.300000
 20
113.600000
  0
VERTEX
  8
CONTOURS
 62
     0
  6
CONTINUOUS
 10
71.200000
 20
114.600000
  0
VERTEX
  8
CONTOURS
 62
     0
  6
CONTINUOUS
 10
70.200000
 20
115.500000
  0
VERTEX
  8
CONTOURS
 62
     0
  6
CONTINUOUS
 10
69.200000
 20
116.600000
  0
VERTEX
  8
CONTOURS
 62
     0
  6
CONTINUOUS
 10
68.100000
 20
117.700000
  0
VERTEX
  8
CONTOURS
 62
     0
  6
CONTINUOUS
 10
67.000000
 20
118.600000
  0
VERTEX
  8
CONTOURS
 62
     0
  6
CONTINUOUS
 10
65.900000
 20
119.600000
  0
VERTEX
  8
CONTOURS
 62
     0
  6
CONTINUOUS
 10
64.800000
 20
120.600000
  0
VERTEX
  8
CONTOURS
 62
     0
  6
CONTINUOUS
 10
63.600000
 20
121.500000
  0
VERTEX
  8
CONTOURS
 62
     0
  6
CONTINUOUS
 10
62.600000
 20
122.500000
  0
VERTEX
  8
CONTOURS
 62
     0
  6
CONTINUOUS
 10
61.300000
 20
123.500000
  0
VERTEX
  8
CONTOURS
 62
     0
  6
CONTINUOUS
 10
60.200000
 20
124.500000
  0
VERTEX
  8
CONTOURS
 62
     0
  6
CONTINUOUS
 10
59.200000
 20
125.500000
  0
VERTEX
  8
CONTOURS
 62
     0
  6
CONTINUOUS
 10
58.200000
 20
126.600000
  0
VERTEX
  8
CONTOURS
 62
     0
  6
CONTINUOUS
 10
57.200000
 20
127.700000
  0
VERTEX
  8
CONTOURS
 62
     0
  6
CONTINUOUS
 10
56.100000
 20
128.900000
  0
VERTEX
  8
CONTOURS
 62
     0
  6
CONTINUOUS
 10
55.100000
 20
129.900000
  0
VERTEX
  8
CONTOURS
 62
     0
  6
CONTINUOUS
 10
54.100000
 20
131.100000
  0
VERTEX
  8
CONTOURS
 62
     0
  6
CONTINUOUS
 10
53.200000
 20
132.200000
  0
VERTEX
  8
CONTOURS
 62
     0
  6
CONTINUOUS
 10
52.200000
 20
133.300000
  0
VERTEX
  8
CONTOURS
 62
     0
  6
CONTINUOUS
 10
51.200000
 20
134.300000
  0
VERTEX
  8
CONTOURS
 62
     0
  6
CONTINUOUS
 10
50.100000
 20
135.400000
  0
VERTEX
  8
CONTOURS
 62
     0
  6
CONTINUOUS
 10
49.100000
 20
136.500000
  0
VERTEX
  8
CONTOURS
 62
     0
  6
CONTINUOUS
 10
48.100000
 20
137.500000
  0
VERTEX
  8
CONTOURS
 62
     0
  6
CONTINUOUS
 10
47.100000
 20
138.600000
  0
VERTEX
  8
CONTOURS
 62
     0
  6
CONTINUOUS
 10
46.100000
 20
139.600000
  0
VERTEX
  8
CONTOURS
 62
     0
  6
CONTINUOUS
 10
45.000000
 20
140.700000
  0
VERTEX
  8
CONTOURS
 62
     0
  6
CONTINUOUS
 10
44.000000
 20
141.700000
  0
VERTEX
  8
CONTOURS
 62
     0
  6
CONTINUOUS
 10
43.000000
 20
142.700000
  0
VERTEX
  8
CONTOURS
 62
     0
  6
CONTINUOUS
 10
42.000000
 20
143.700000
  0
VERTEX
  8
CONTOURS
 62
     0
  6
CONTINUOUS
 10
41.000000
 20
144.700000
  0
VERTEX
  8
CONTOURS
 62
     0
  6
CONTINUOUS
 10
40.000000
 20
145.800000
  0
VERTEX
  8
CONTOURS
 62
     0
  6
CONTINUOUS
 10
39.000000
 20
146.900000
  0
VERTEX
  8
CONTOURS
 62
     0
  6
CONTINUOUS
 10
38.000000
 20
147.900000
  0
VERTEX
  8
CONTOURS
 62
     0
  6
CONTINUOUS
 10
37.000000
 20
149.000000
  0
VERTEX
  8
CONTOURS
 62
     0
  6
CONTINUOUS
 10
36.000000
 20
150.200000
  0
VERTEX
  8
CONTOURS
 62
     0
  6
CONTINUOUS
 10
35.200000
 20
151.400000
  0
VERTEX
  8
CONTOURS
 62
     0
  6
CONTINUOUS
 10
34.300000
 20
152.600000
  0
VERTEX
  8
CONTOURS
 62
     0
  6
CONTINUOUS
 10
33.400000
 20
153.800000
  0
VERTEX
  8
CONTOURS
 62
     0
  6
CONTINUOUS
 10
32.600000
 20
155.100000
  0
VERTEX
  8
CONTOURS
 62
     0
  6
CONTINUOUS
 10
31.800000
 20
156.300000
  0
VERTEX
  8
CONTOURS
 62
     0
  6
CONTINUOUS
 10
31.100000
 20
157.700000
  0
VERTEX
  8
CONTOURS
 62
     0
  6
CONTINUOUS
 10
30.300000
 20
159.000000
  0
VERTEX
  8
CONTOURS
 62
     0
  6
CONTINUOUS
 10
29.600000
 20
160.300000
  0
VERTEX
  8
CONTOURS
 62
     0
  6
CONTINUOUS
 10
28.800000
 20
161.800000
  0
VERTEX
  8
CONTOURS
 62
     0
  6
CONTINUOUS
 10
28.100000
 20
163.100000
  0
VERTEX
  8
CONTOURS
 62
     0
  6
CONTINUOUS
 10
27.400000
 20
164.400000
  0
VERTEX
  8
CONTOURS
 62
     0
  6
CONTINUOUS
 10
26.700000
 20
166.000000
  0
VERTEX
  8
CONTOURS
 62
     0
  6
CONTINUOUS
 10
26.100000
 20
167.500000
  0
VERTEX
  8
CONTOURS
 62
     0
  6
CONTINUOUS
 10
25.300000
 20
168.900000
  0
VERTEX
  8
CONTOURS
 62
     0
  6
CONTINUOUS
 10
24.600000
 20
170.300000
  0
VERTEX
  8
CONTOURS
 62
     0
  6
CONTINUOUS
 10
24.000000
 20
171.600000
  0
VERTEX
  8
CONTOURS
 62
     0
  6
CONTINUOUS
 10
23.300000
 20
173.000000
  0
VERTEX
  8
CONTOURS
 62
     0
  6
CONTINUOUS
 10
22.600000
 20
174.300000
  0
VERTEX
  8
CONTOURS
 62
     0
  6
CONTINUOUS
 10
21.700000
 20
175.900000
  0
VERTEX
  8
CONTOURS
 62
     0
  6
CONTINUOUS
 10
21.000000
 20
177.300000
  0
VERTEX
  8
CONTOURS
 62
     0
  6
CONTINUOUS
 10
20.300000
 20
178.700000
  0
VERTEX
  8
CONTOURS
 62
     0
  6
CONTINUOUS
 10
19.500000
 20
180.200000
  0
VERTEX
  8
CONTOURS
 62
     0
  6
CONTINUOUS
 10
18.900000
 20
181.500000
  0
VERTEX
  8
CONTOURS
 62
     0
  6
CONTINUOUS
 10
18.200000
 20
182.900000
  0
VERTEX
  8
CONTOURS
 62
     0
  6
CONTINUOUS
 10
17.600000
 20
184.300000
  0
VERTEX
  8
CONTOURS
 62
     0
  6
CONTINUOUS
 10
17.300000
 20
185.000000
  0
SEQEND
  8
CONTOURS
  0
TEXT
  8
FEATURES_LB
 62
     0
 10
46.900000
 20
26.300000
 40
2.108410
  1
37
 41
1.000000
  7
SN2
 71
     0
 72
     5
 11
48.900000
 21
26.300000
  0
TEXT
  8
FEATURES_LB
 62
     0
 10
98.500000
 20
46.100000
 40
2.108410
  1
34
 41
1.000000
  7
SN2
 71
     0
 72
     5
 11
100.700000
 21
46.100000
  0
TEXT
  8
FEATURES_LB
 62
     0
 10
70.100000
 20
17.900000
 40
2.108410
  1
42
 41
1.000000
  7
SN2
 71
     0
 72
     5
 11
72.300000
 21
17.900000
  0
TEXT
  8
FEATURES_LB
 62
     0
 10
75.500000
 20
26.200000
 40
2.108410
  1
40
 41
1.000000
  7
SN2
 71
     0
 72
     5
 11
77.800000
 21
26.200000
  0
TEXT
  8
FEATURES_LB
 62
     0
 10
131.200000
 20
81.900000
 40
2.108410
  1
80
 41
1.000000
  7
SN2
 71
     0
 72
     5
 11
133.300000
 21
81.900000
  0
TEXT
  8
FEATURES_LB
 62
     0
 10
134.300000
 20
70.200000
 40
2.108410
  1
80
 41
1.000000
  7
SN2
 71
     0
 72
     5
 11
136.400000
 21
70.200000
  0
TEXT
  8
FEATURES_LB
 62
     0
 10
141.700000
 20
72.300000
 40
2.108410
  1
80
 41
1.000000
  7
SN2
 71
     0
 72
     5
 11
143.800000
 21
72.300000
  0
TEXT
  8
FEATURES_LB
 62
     0
 10
137.300000
 20
79.300000
 40
2.108410
  1
37
 41
1.000000
  7
SN2
 71
     0
 72
     5
 11
139.300000
 21
79.300000
  0
TEXT
  8
FEATURES_LB
 62
     0
 10
140.000000
 20
89.600000
 40
2.108410
  1
68
 41
1.000000
  7
SN2
 71
     0
 72
     5
 11
142.000000
 21
89.600000
  0
TEXT
  8
FEATURES_LB
 62
     0
 10
143.100000
 20
95.700000
 40
2.108410
  1
84
 41
1.000000
  7
SN2
 71
     0
 72
     5
 11
145.300000
 21
95.700000
  0
TEXT
  8
FEATURES_LB
 62
     0
 10
19.000000
 20
154.800000
 40
2.018822
  1
4500 m
 50
319.218543
 41
1.000000
  7
SN2
 71
     0
 72
     5
 11
24.002546
 21
150.484385
  0
TEXT
  8
FEATURES_LB
 62
     0
 10
97.900000
 20
141.700000
 40
3.208450
  1
L 3
 41
1.000000
  7
SN2
 71
     0
 72
     5
 11
101.600000
 21
141.700000
  0
TEXT
  8
FEATURES_LB
 62
     0
 10
63.700000
 20
96.600000
 40
3.208450
  1
L 2
 41
1.000000
  7
SN2
 71
     0
 72
     5
 11
67.400000
 21
96.600000
  0
TEXT
  8
FEATURES_LB
 62
     0
 10
21.600000
 20
48.200000
 40
3.208450
  1
L 1
 41
1.000000
  7
SN2
 71
     0
 72
     5
 11
24.800000
 21
48.200000
  0
TEXT
  8
FEATURES_LB
 62
     0
 10
152.600000
 20
119.400000
 40
2.566760
  1
BH E
 41
1.000000
  7
SN2
 71
     0
 72
     5
 11
157.000000
 21
119.400000
  0
TEXT
  8
FEATURES_LB
 62
     0
 10
149.100000
 20
114.200000
 40
2.566760
  1
BH D
 41
1.000000
  7
SN2
 71
     0
 72
     5
 11
153.700000
 21
114.200000
  0
TEXT
  8
FEATURES_LB
 62
     0
 10
142.100000
 20
109.100000
 40
2.566760
  1
BH C
 41
1.000000
  7
SN2
 71
     0
 72
     5
 11
146.600000
 21
109.100000
  0
TEXT
  8
FEATURES_LB
 62
     0
 10
137.200000
 20
103.300000
 40
2.566760
  1
BH B
 41
1.000000
  7
SN2
 71
     0
 72
     5
 11
141.800000
 21
103.300000
  0
TEXT
  8
FEATURES_LB
 62
     0
 10
132.900000
 20
97.200000
 40
2.566760
  1
BH A
 41
1.000000
  7
SN2
 71
     0
 72
     5
 11
137.700000
 21
97.200000
  0
TEXT
  8
FEATURES_LB
 62
     0
 10
130.200000
 20
90.500000
 40
2.108410
  1
Tr 2
 41
1.000000
  7
SN2
 71
     0
 72
     5
 11
133.600000
 21
90.500000
  0
TEXT
  8
FEATURES_LB
 62
     0
 10
120.100000
 20
67.300000
 40
2.108410
  1
Tr 1
 41
1.000000
  7
SN2
 71
     0
 72
     5
 11
123.200000
 21
67.300000
  0
TEXT
  8
FEATURES_LB
 62
     0
 10
169.200000
 20
130.600000
 40
2.108410
  1
Tr 4
 41
1.000000
  7
SN2
 71
     0
 72
     5
 11
172.800000
 21
130.600000
  0
POLYLINE
  8
LEGEND
 62
     0
  6
CONTINUOUS
 66
     1
 40
0.100000
 41
0.100000
  0
VERTEX
  8
LEGEND
 62
     0
  6
CONTINUOUS
 10
189.900000
 20
133.000000
  0
VERTEX
  8
LEGEND
 62
     0
  6
CONTINUOUS
 10
259.900000
 20
133.000000
  0
VERTEX
  8
LEGEND
 62
     0
  6
CONTINUOUS
 10
259.900000
 20
188.000000
  0
VERTEX
  8
LEGEND
 62
     0
  6
CONTINUOUS
 10
189.900000
 20
188.000000
  0
VERTEX
  8
LEGEND
 62
     0
  6
CONTINUOUS
 10
189.900000
 20
133.000000
  0
SEQEND
  8
LEGEND
  0
TEXT
  8
LEGEND
 62
     0
 10
193.000000
 20
181.100000
 40
4.858510
  1
Blue Mountain Prospect
 41
1.000000
  7
SN2
 71
     0
 72
     5
 11
240.500000
 21
181.100000
  0
POLYLINE
  8
LEGEND
 62
     0
  6
CONTINUOUS
 66
     1
 40
0.100000
 41
0.100000
  0
VERTEX
  8
LEGEND
 62
     0
  6
CONTINUOUS
 10
193.300000
 20
175.500000
  0
VERTEX
  8
LEGEND
 62
     0
  6
CONTINUOUS
 10
201.900000
 20
175.500000
  0
VERTEX
  8
LEGEND
 62
     0
  6
CONTINUOUS
 10
210.500000
 20
175.500000
  0
SEQEND
  8
LEGEND
  0
TEXT
  8
LEGEND
 62
     0
 10
213.900000
 20
174.600000
 40
2.658430
  1
Contours
 41
1.000000
  7
SN2
 71
     0
 72
     5
 11
224.200000
 21
174.600000
  0
LINE
  8
LEGEND
 62
     0
  6
CONTINUOUS
 10
193.300000
 20
170.000000
 11
196.300000
 21
170.000000
  0
LINE
  8
LEGEND
 62
     0
  6
CONTINUOUS
 10
197.300000
 20
170.000000
 11
200.300000
 21
170.000000
  0
LINE
  8
LEGEND
 62
     0
  6
CONTINUOUS
 10
201.300000
 20
170.000000
 11
201.900000
 21
170.000000
  0
LINE
  8
LEGEND
 62
     0
  6
CONTINUOUS
 10
201.900000
 20
170.000000
 11
204.300000
 21
170.000000
  0
LINE
  8
LEGEND
 62
     0
  6
CONTINUOUS
 10
205.300000
 20
170.000000
 11
208.300000
 21
170.000000
  0
LINE
  8
LEGEND
 62
     0
  6
CONTINUOUS
 10
209.300000
 20
170.000000
 11
210.500000
 21
170.000000
  0
POLYLINE
  8
LEGEND
 62
     0
  6
CONTINUOUS
 66
     1
 40
0.200000
 41
0.200000
  0
VERTEX
  8
LEGEND
 62
     0
  6
CONTINUOUS
 10
193.300000
 20
171.000000
  0
VERTEX
  8
LEGEND
 62
     0
  6
CONTINUOUS
 10
196.300000
 20
171.000000
  0
SEQEND
  8
LEGEND
  0
POLYLINE
  8
LEGEND
 62
     0
  6
CONTINUOUS
 66
     1
 40
0.200000
 41
0.200000
  0
VERTEX
  8
LEGEND
 62
     0
  6
CONTINUOUS
 10
197.300000
 20
171.000000
  0
VERTEX
  8
LEGEND
 62
     0
  6
CONTINUOUS
 10
200.300000
 20
171.000000
  0
SEQEND
  8
LEGEND
  0
POLYLINE
  8
LEGEND
 62
     0
  6
CONTINUOUS
 66
     1
 40
0.200000
 41
0.200000
  0
VERTEX
  8
LEGEND
 62
     0
  6
CONTINUOUS
 10
201.300000
 20
171.000000
  0
VERTEX
  8
LEGEND
 62
     0
  6
CONTINUOUS
 10
201.900000
 20
171.000000
  0
SEQEND
  8
LEGEND
  0
POLYLINE
  8
LEGEND
 62
     0
  6
CONTINUOUS
 66
     1
 40
0.200000
 41
0.200000
  0
VERTEX
  8
LEGEND
 62
     0
  6
CONTINUOUS
 10
201.900000
 20
171.000000
  0
VERTEX
  8
LEGEND
 62
     0
  6
CONTINUOUS
 10
204.300000
 20
171.000000
  0
SEQEND
  8
LEGEND
  0
POLYLINE
  8
LEGEND
 62
     0
  6
CONTINUOUS
 66
     1
 40
0.200000
 41
0.200000
  0
VERTEX
  8
LEGEND
 62
     0
  6
CONTINUOUS
 10
205.300000
 20
171.000000
  0
VERTEX
  8
LEGEND
 62
     0
  6
CONTINUOUS
 10
208.300000
 20
171.000000
  0
SEQEND
  8
LEGEND
  0
POLYLINE
  8
LEGEND
 62
     0
  6
CONTINUOUS
 66
     1
 40
0.200000
 41
0.200000
  0
VERTEX
  8
LEGEND
 62
     0
  6
CONTINUOUS
 10
209.300000
 20
171.000000
  0
VERTEX
  8
LEGEND
 62
     0
  6
CONTINUOUS
 10
210.500000
 20
171.000000
  0
SEQEND
  8
LEGEND
  0
TEXT
  8
LEGEND
 62
     0
 10
213.900000
 20
169.600000
 40
2.658430
  1
Road
 41
1.000000
  7
SN2
 71
     0
 72
     5
 11
219.300000
 21
169.600000
  0
POLYLINE
  8
LEGEND
 62
     0
  6
CONTINUOUS
 66
     1
 40
0.000000
 41
0.000000
  0
VERTEX
  8
LEGEND
 62
     0
  6
CONTINUOUS
 10
193.300000
 20
165.500000
  0
VERTEX
  8
LEGEND
 62
     0
  6
CONTINUOUS
 10
201.900000
 20
165.500000
  0
VERTEX
  8
LEGEND
 62
     0
  6
CONTINUOUS
 10
210.500000
 20
165.500000
  0
SEQEND
  8
LEGEND
  0
POLYLINE
  8
LEGEND
 62
     0
  6
CONTINUOUS
 66
     1
 40
0.100000
 41
0.100000
  0
VERTEX
  8
LEGEND
 62
     0
  6
CONTINUOUS
 10
197.200000
 20
164.900000
  0
VERTEX
  8
LEGEND
 62
     0
  6
CONTINUOUS
 10
196.900000
 20
165.100000
  0
VERTEX
  8
LEGEND
 62
     0
  6
CONTINUOUS
 10
196.800000
 20
165.500000
  0
VERTEX
  8
LEGEND
 62
     0
  6
CONTINUOUS
 10
196.900000
 20
165.900000
  0
VERTEX
  8
LEGEND
 62
     0
  6
CONTINUOUS
 10
197.200000
 20
166.200000
  0
VERTEX
  8
LEGEND
 62
     0
  6
CONTINUOUS
 10
197.600000
 20
166.300000
  0
VERTEX
  8
LEGEND
 62
     0
  6
CONTINUOUS
 10
197.900000
 20
166.200000
  0
VERTEX
  8
LEGEND
 62
     0
  6
CONTINUOUS
 10
198.200000
 20
165.900000
  0
VERTEX
  8
LEGEND
 62
     0
  6
CONTINUOUS
 10
198.300000
 20
165.500000
  0
VERTEX
  8
LEGEND
 62
     0
  6
CONTINUOUS
 10
198.400000
 20
165.100000
  0
VERTEX
  8
LEGEND
 62
     0
  6
CONTINUOUS
 10
198.700000
 20
164.800000
  0
VERTEX
  8
LEGEND
 62
     0
  6
CONTINUOUS
 10
199.100000
 20
164.700000
  0
VERTEX
  8
LEGEND
 62
     0
  6
CONTINUOUS
 10
199.400000
 20
164.800000
  0
VERTEX
  8
LEGEND
 62
     0
  6
CONTINUOUS
 10
199.700000
 20
165.100000
  0
VERTEX
  8
LEGEND
 62
     0
  6
CONTINUOUS
 10
199.800000
 20
165.500000
  0
VERTEX
  8
LEGEND
 62
     0
  6
CONTINUOUS
 10
199.700000
 20
165.900000
  0
VERTEX
  8
LEGEND
 62
     0
  6
CONTINUOUS
 10
199.400000
 20
166.100000
  0
SEQEND
  8
LEGEND
  0
POLYLINE
  8
LEGEND
 62
     0
  6
CONTINUOUS
 66
     1
 40
0.100000
 41
0.100000
  0
VERTEX
  8
LEGEND
 62
     0
  6
CONTINUOUS
 10
202.200000
 20
164.900000
  0
VERTEX
  8
LEGEND
 62
     0
  6
CONTINUOUS
 10
201.900000
 20
165.100000
  0
VERTEX
  8
LEGEND
 62
     0
  6
CONTINUOUS
 10
201.800000
 20
165.500000
  0
VERTEX
  8
LEGEND
 62
     0
  6
CONTINUOUS
 10
201.900000
 20
165.900000
  0
VERTEX
  8
LEGEND
 62
     0
  6
CONTINUOUS
 10
202.200000
 20
166.200000
  0
VERTEX
  8
LEGEND
 62
     0
  6
CONTINUOUS
 10
202.600000
 20
166.300000
  0
VERTEX
  8
LEGEND
 62
     0
  6
CONTINUOUS
 10
202.900000
 20
166.200000
  0
VERTEX
  8
LEGEND
 62
     0
  6
CONTINUOUS
 10
203.200000
 20
165.900000
  0
VERTEX
  8
LEGEND
 62
     0
  6
CONTINUOUS
 10
203.300000
 20
165.500000
  0
VERTEX
  8
LEGEND
 62
     0
  6
CONTINUOUS
 10
203.400000
 20
165.100000
  0
VERTEX
  8
LEGEND
 62
     0
  6
CONTINUOUS
 10
203.700000
 20
164.800000
  0
VERTEX
  8
LEGEND
 62
     0
  6
CONTINUOUS
 10
204.100000
 20
164.700000
  0
VERTEX
  8
LEGEND
 62
     0
  6
CONTINUOUS
 10
204.400000
 20
164.800000
  0
VERTEX
  8
LEGEND
 62
     0
  6
CONTINUOUS
 10
204.700000
 20
165.100000
  0
VERTEX
  8
LEGEND
 62
     0
  6
CONTINUOUS
 10
204.800000
 20
165.500000
  0
VERTEX
  8
LEGEND
 62
     0
  6
CONTINUOUS
 10
204.700000
 20
165.900000
  0
VERTEX
  8
LEGEND
 62
     0
  6
CONTINUOUS
 10
204.400000
 20
166.100000
  0
SEQEND
  8
LEGEND
  0
POLYLINE
  8
LEGEND
 62
     0
  6
CONTINUOUS
 66
     1
 40
0.100000
 41
0.100000
  0
VERTEX
  8
LEGEND
 62
     0
  6
CONTINUOUS
 10
207.200000
 20
164.900000
  0
VERTEX
  8
LEGEND
 62
     0
  6
CONTINUOUS
 10
206.900000
 20
165.100000
  0
VERTEX
  8
LEGEND
 62
     0
  6
CONTINUOUS
 10
206.800000
 20
165.500000
  0
VERTEX
  8
LEGEND
 62
     0
  6
CONTINUOUS
 10
206.900000
 20
165.900000
  0
VERTEX
  8
LEGEND
 62
     0
  6
CONTINUOUS
 10
207.200000
 20
166.200000
  0
VERTEX
  8
LEGEND
 62
     0
  6
CONTINUOUS
 10
207.600000
 20
166.300000
  0
VERTEX
  8
LEGEND
 62
     0
  6
CONTINUOUS
 10
207.900000
 20
166.200000
  0
VERTEX
  8
LEGEND
 62
     0
  6
CONTINUOUS
 10
208.200000
 20
165.900000
  0
VERTEX
  8
LEGEND
 62
     0
  6
CONTINUOUS
 10
208.300000
 20
165.500000
  0
VERTEX
  8
LEGEND
 62
     0
  6
CONTINUOUS
 10
208.400000
 20
165.100000
  0
VERTEX
  8
LEGEND
 62
     0
  6
CONTINUOUS
 10
208.700000
 20
164.800000
  0
VERTEX
  8
LEGEND
 62
     0
  6
CONTINUOUS
 10
209.100000
 20
164.700000
  0
VERTEX
  8
LEGEND
 62
     0
  6
CONTINUOUS
 10
209.400000
 20
164.800000
  0
VERTEX
  8
LEGEND
 62
     0
  6
CONTINUOUS
 10
209.700000
 20
165.100000
  0
VERTEX
  8
LEGEND
 62
     0
  6
CONTINUOUS
 10
209.800000
 20
165.500000
  0
VERTEX
  8
LEGEND
 62
     0
  6
CONTINUOUS
 10
209.700000
 20
165.900000
  0
VERTEX
  8
LEGEND
 62
     0
  6
CONTINUOUS
 10
209.400000
 20
166.100000
  0
SEQEND
  8
LEGEND
  0
TEXT
  8
LEGEND
 62
     0
 10
213.900000
 20
164.600000
 40
2.658430
  1
Fault
 41
1.000000
  7
SN2
 71
     0
 72
     5
 11
219.300000
 21
164.600000
  0
POLYLINE
  8
LEGEND
 62
     0
  6
CONTINUOUS
 66
     1
 40
0.100000
 41
0.100000
  0
VERTEX
  8
LEGEND
 62
     0
  6
CONTINUOUS
 10
200.400000
 20
160.500000
  0
VERTEX
  8
LEGEND
 62
     0
  6
CONTINUOUS
 10
200.600000
 20
161.300000
  0
VERTEX
  8
LEGEND
 62
     0
  6
CONTINUOUS
 10
201.200000
 20
161.800000
  0
VERTEX
  8
LEGEND
 62
     0
  6
CONTINUOUS
 10
201.900000
 20
162.000000
  0
VERTEX
  8
LEGEND
 62
     0
  6
CONTINUOUS
 10
202.700000
 20
161.800000
  0
VERTEX
  8
LEGEND
 62
     0
  6
CONTINUOUS
 10
203.200000
 20
161.200000
  0
VERTEX
  8
LEGEND
 62
     0
  6
CONTINUOUS
 10
203.400000
 20
160.500000
  0
VERTEX
  8
LEGEND
 62
     0
  6
CONTINUOUS
 10
203.200000
 20
159.700000
  0
VERTEX
  8
LEGEND
 62
     0
  6
CONTINUOUS
 10
202.600000
 20
159.200000
  0
VERTEX
  8
LEGEND
 62
     0
  6
CONTINUOUS
 10
201.900000
 20
159.000000
  0
VERTEX
  8
LEGEND
 62
     0
  6
CONTINUOUS
 10
201.100000
 20
159.200000
  0
VERTEX
  8
LEGEND
 62
     0
  6
CONTINUOUS
 10
200.600000
 20
159.800000
  0
VERTEX
  8
LEGEND
 62
     0
  6
CONTINUOUS
 10
200.400000
 20
160.500000
  0
SEQEND
  8
LEGEND
  0
POLYLINE
  8
LEGEND
 62
     0
  6
CONTINUOUS
 66
     1
 40
0.100000
 41
0.100000
  0
VERTEX
  8
LEGEND
 62
     0
  6
CONTINUOUS
 10
201.900000
 20
160.500000
  0
VERTEX
  8
LEGEND
 62
     0
  6
CONTINUOUS
 10
201.900000
 20
162.000000
  0
VERTEX
  8
LEGEND
 62
     0
  6
CONTINUOUS
 10
202.700000
 20
161.800000
  0
VERTEX
  8
LEGEND
 62
     0
  6
CONTINUOUS
 10
203.200000
 20
161.200000
  0
VERTEX
  8
LEGEND
 62
     0
  6
CONTINUOUS
 10
203.400000
 20
160.500000
  0
VERTEX
  8
LEGEND
 62
     0
  6
CONTINUOUS
 10
201.900000
 20
160.500000
  0
SEQEND
  8
LEGEND
  0
POLYLINE
  8
LEGEND
 62
     0
  6
CONTINUOUS
 66
     1
 40
0.100000
 41
0.100000
  0
VERTEX
  8
LEGEND
 62
     0
  6
CONTINUOUS
 10
201.900000
 20
160.500000
  0
VERTEX
  8
LEGEND
 62
     0
  6
CONTINUOUS
 10
201.900000
 20
159.000000
  0
VERTEX
  8
LEGEND
 62
     0
  6
CONTINUOUS
 10
201.100000
 20
159.200000
  0
VERTEX
  8
LEGEND
 62
     0
  6
CONTINUOUS
 10
200.600000
 20
159.800000
  0
VERTEX
  8
LEGEND
 62
     0
  6
CONTINUOUS
 10
200.400000
 20
160.500000
  0
VERTEX
  8
LEGEND
 62
     0
  6
CONTINUOUS
 10
201.900000
 20
160.500000
  0
SEQEND
  8
LEGEND
  0
TEXT
  8
LEGEND
 62
     0
 10
213.900000
 20
159.600000
 40
2.658430
  1
Borehole
 41
1.000000
  7
SN2
 71
     0
 72
     5
 11
223.800000
 21
159.600000
  0
POLYLINE
  8
LEGEND
 62
     0
  6
CONTINUOUS
 66
     1
 40
0.400000
 41
0.400000
  0
VERTEX
  8
LEGEND
 62
     0
  6
CONTINUOUS
 10
193.300000
 20
155.500000
  0
VERTEX
  8
LEGEND
 62
     0
  6
CONTINUOUS
 10
201.900000
 20
155.500000
  0
VERTEX
  8
LEGEND
 62
     0
  6
CONTINUOUS
 10
210.500000
 20
155.500000
  0
SEQEND
  8
LEGEND
  0
SOLID
  8
LEGEND
 62
     0
 10
193.300000
 20
156.600000
 11
192.200000
 21
154.800000
 12
193.300000
 22
156.600000
 13
194.400000
 23
154.700000
  0
POLYLINE
  8
LEGEND
 62
     0
  6
CONTINUOUS
 66
     1
 40
0.100000
 41
0.100000
  0
VERTEX
  8
LEGEND
 62
     0
  6
CONTINUOUS
 10
193.300000
 20
156.600000
  0
VERTEX
  8
LEGEND
 62
     0
  6
CONTINUOUS
 10
192.200000
 20
154.800000
  0
VERTEX
  8
LEGEND
 62
     0
  6
CONTINUOUS
 10
194.400000
 20
154.700000
  0
VERTEX
  8
LEGEND
 62
     0
  6
CONTINUOUS
 10
193.300000
 20
156.600000
  0
SEQEND
  8
LEGEND
  0
SOLID
  8
LEGEND
 62
     0
 10
203.300000
 20
156.600000
 11
202.200000
 21
154.800000
 12
203.300000
 22
156.600000
 13
204.400000
 23
154.700000
  0
POLYLINE
  8
LEGEND
 62
     0
  6
CONTINUOUS
 66
     1
 40
0.100000
 41
0.100000
  0
VERTEX
  8
LEGEND
 62
     0
  6
CONTINUOUS
 10
203.300000
 20
156.600000
  0
VERTEX
  8
LEGEND
 62
     0
  6
CONTINUOUS
 10
202.200000
 20
154.800000
  0
VERTEX
  8
LEGEND
 62
     0
  6
CONTINUOUS
 10
204.400000
 20
154.700000
  0
VERTEX
  8
LEGEND
 62
     0
  6
CONTINUOUS
 10
203.300000
 20
156.600000
  0
SEQEND
  8
LEGEND
  0
TEXT
  8
LEGEND
 62
     0
 10
213.900000
 20
154.600000
 40
2.658430
  1
Sample Grid
 41
1.000000
  7
SN2
 71
     0
 72
     5
 11
226.800000
 21
154.600000
  0
LINE
  8
LEGEND
 62
     0
  6
CONTINUOUS
 10
206.900000
 20
150.500000
 11
196.900000
 21
150.500000
  0
LINE
  8
LEGEND
 62
     0
  6
CONTINUOUS
 10
205.900000
 20
150.500000
 11
205.400000
 21
150.500000
  0
LINE
  8
LEGEND
 62
     0
  6
CONTINUOUS
 10
206.900000
 20
150.500000
 11
208.400000
 21
152.000000
  0
LINE
  8
LEGEND
 62
     0
  6
CONTINUOUS
 10
206.900000
 20
150.500000
 11
208.400000
 21
149.000000
  0
LINE
  8
LEGEND
 62
     0
  6
CONTINUOUS
 10
196.900000
 20
150.500000
 11
195.400000
 21
152.000000
  0
LINE
  8
LEGEND
 62
     0
  6
CONTINUOUS
 10
196.900000
 20
150.500000
 11
195.400000
 21
149.000000
  0
TEXT
  8
LEGEND
 62
     0
 10
213.900000
 20
149.600000
 40
2.658430
  1
Trench
 41
1.000000
  7
SN2
 71
     0
 72
     5
 11
221.800000
 21
149.600000
  0
SOLID
  8
LEGEND
 62
     0
 10
201.900000
 20
146.600000
 11
200.800000
 21
144.800000
 12
201.900000
 22
146.600000
 13
203.000000
 23
144.700000
  0
POLYLINE
  8
LEGEND
 62
     0
  6
CONTINUOUS
 66
     1
 40
0.100000
 41
0.100000
  0
VERTEX
  8
LEGEND
 62
     0
  6
CONTINUOUS
 10
201.900000
 20
146.600000
  0
VERTEX
  8
LEGEND
 62
     0
  6
CONTINUOUS
 10
200.800000
 20
144.800000
  0
VERTEX
  8
LEGEND
 62
     0
  6
CONTINUOUS
 10
203.000000
 20
144.700000
  0
VERTEX
  8
LEGEND
 62
     0
  6
CONTINUOUS
 10
201.900000
 20
146.600000
  0
SEQEND
  8
LEGEND
  0
TEXT
  8
LEGEND
 62
     0
 10
213.900000
 20
144.600000
 40
2.658430
  1
Rock Sample
 41
1.000000
  7
SN2
 71
     0
 72
     5
 11
227.900000
 21
144.600000
  0
LINE
  8
LEGEND
 62
     0
  6
CONTINUOUS
 10
201.900000
 20
140.500000
 11
205.900000
 21
140.500000
  0
LINE
  8
LEGEND
 62
     0
  6
CONTINUOUS
 10
201.900000
 20
140.500000
 11
197.900000
 21
140.500000
  0
POLYLINE
  8
LEGEND
 62
     0
  6
CONTINUOUS
 66
     1
 40
0.000000
 41
0.000000
  0
VERTEX
  8
LEGEND
 62
     0
  6
CONTINUOUS
 10
201.900000
 20
140.500000
  0
VERTEX
  8
LEGEND
 62
     0
  6
CONTINUOUS
 10
202.900000
 20
140.500000
  0
VERTEX
  8
LEGEND
 62
     0
  6
CONTINUOUS
 10
202.900000
 20
139.500000
  0
VERTEX
  8
LEGEND
 62
     0
  6
CONTINUOUS
 10
200.900000
 20
139.500000
  0
VERTEX
  8
LEGEND
 62
     0
  6
CONTINUOUS
 10
200.900000
 20
140.500000
  0
VERTEX
  8
LEGEND
 62
     0
  6
CONTINUOUS
 10
201.900000
 20
140.500000
  0
SEQEND
  8
LEGEND
  0
TEXT
  8
LEGEND
 62
     0
 10
213.900000
 20
139.600000
 40
2.658430
  1
Vein
 41
1.000000
  7
SN2
 71
     0
 72
     5
 11
218.600000
 21
139.600000
  0
LINE
  8
LEGEND
 62
     0
  6
CONTINUOUS
 10
201.900000
 20
135.500000
 11
205.900000
 21
135.500000
  0
LINE
  8
LEGEND
 62
     0
  6
CONTINUOUS
 10
201.900000
 20
135.500000
 11
197.900000
 21
135.500000
  0
LINE
  8
LEGEND
 62
     0
  6
CONTINUOUS
 10
201.900000
 20
135.500000
 11
201.900000
 21
133.500000
  0
TEXT
  8
LEGEND
 62
     0
 10
213.900000
 20
134.600000
 40
2.658430
  1
Joint
 41
1.000000
  7
SN2
 71
     0
 72
     5
 11
219.500000
 21
134.600000
  0
LINE
  8
LEGEND
 62
     0
  6
CONTINUOUS
 10
189.900000
 20
178.000000
 11
259.900000
 21
178.000000
  0
LINE
  8
LEGEND
 62
     0
  6
CONTINUOUS
 10
189.900000
 20
173.000000
 11
259.900000
 21
173.000000
  0
LINE
  8
LEGEND
 62
     0
  6
CONTINUOUS
 10
189.900000
 20
168.000000
 11
259.900000
 21
168.000000
  0
LINE
  8
LEGEND
 62
     0
  6
CONTINUOUS
 10
189.900000
 20
163.000000
 11
259.900000
 21
163.000000
  0
LINE
  8
LEGEND
 62
     0
  6
CONTINUOUS
 10
189.900000
 20
158.000000
 11
259.900000
 21
158.000000
  0
LINE
  8
LEGEND
 62
     0
  6
CONTINUOUS
 10
189.900000
 20
153.000000
 11
259.900000
 21
153.000000
  0
LINE
  8
LEGEND
 62
     0
  6
CONTINUOUS
 10
189.900000
 20
148.000000
 11
259.900000
 21
148.000000
  0
LINE
  8
LEGEND
 62
     0
  6
CONTINUOUS
 10
189.900000
 20
143.000000
 11
259.900000
 21
143.000000
  0
LINE
  8
LEGEND
 62
     0
  6
CONTINUOUS
 10
189.900000
 20
138.000000
 11
259.900000
 21
138.000000
  0
ENDSEC
  0
EOF
