  0
SECTION
  2
HEADER
  9
$ACADVER
  1
AC1006
  9
$EXTMIN
 10
491.722290
 20
110.040604
  9
$EXTMAX
 10
776.937073
 20
409.401093
  9
$LIMMIN
 10
491.722290
 20
110.040604
  9
$LIMMAX
 10
776.937073
 20
409.401093
  9
$VIEWCTR
 10
634.329681
 20
259.720848
  9
$VIEWSIZE
 40
299.360489
  9
$FILLMODE
 70
      1
  9
$CELTYPE
  6
BYLAYER
  9
$CECOLOR
 62
   256
  9
$COORDS
 70
     1
  0
ENDSEC
  0
SECTION
  2
TABLES
  0
TABLE
  2
LTYPE
 70
     4
  0
LTYPE
  2
CONTINUOUS
 70
    64
  3
solid line
 72
    65
 73
     0
 40
0.000000
  0
LTYPE
  2
DOT
 70
    64
  3
. . . . . . . 
 72
    65
 73
     2
 40
0.500000
 49
0.000000
 49
-0.500000
  0
LTYPE
  2
DASH
 70
    64
  3
_ _ _ _ _ 
 72
    65
 73
     2
 40
1.500000
 49
1.000000
 49
-0.500000
  0
LTYPE
  2
DASHDOT
 70
    64
  3
_ . _ . _ . 
 72
    65
 73
     4
 40
2.000000
 49
1.000000
 49
-0.500000
 49
0.000000
 49
-0.500000
  0
ENDTAB
  0
TABLE
  2
LAYER
 70
    35
  0
LAYER
  2
REDGE
 70
    64
 62
     5
  6
CONTINUOUS
  0
LAYER
  2
SLPSTAKE
 70
    64
 62
     3
  6
DOT
  0
LAYER
  2
ROW
 70
    64
 62
     4
  6
DASH
  0
LAYER
  2
0
 70
    64
 62
     7
  6
CONTINUOUS
  0
ENDTAB
  0
TABLE
  2
STYLE
 70
     1
  0
STYLE
  2
STANDARD
 70
     0
 40
0.0
 41
1.0
 50
0.0
 71
     0
 42
1.0
  3
TXT
  0
ENDTAB
  0
TABLE
  2
VIEW
 70
     0
  0
ENDTAB
  0
ENDSEC
  0
SECTION
  2
BLOCKS
  0
BLOCK
  8
0
  2
CIRCLE
 70
0
 10
10.0
 20
10.0
  0
POLYLINE
  8
0
 66
  1
  0
VERTEX
  8
0
 10
5.0
 20
10.0
 42
0.41
  0
VERTEX
  8
0
 10
10.0
 20
5.0
 42
0.41
  0
VERTEX
  8
0
 10
15.0
 20
10.0
 42
0.41
  0
VERTEX
  8
0
 10
10.0
 20
15.0
 42
0.41
  0
VERTEX
  8
0
 10
5.0
 20
10.0
 42
1.0
  0
SEQEND
  0
ENDBLK
  0
BLOCK
  8
0
  2
CIRCLE_F
 70
0
 10
10.0
 20
10.0
  0
POLYLINE
  8
0
 66
  1
 40
10.0
 41
10.0
  0
VERTEX
  8
0
 10
7.5
 20
10.0
 42
-0.41
  0
VERTEX
  8
0
 10
10.0
 20
12.5
 42
-0.41
  0
VERTEX
  8
0
 10
12.5
 20
10.0
 42
-0.41
  0
VERTEX
  8
0
 10
10.0
 20
7.5
 42
-0.41
  0
VERTEX
  8
0
 10
7.5
 20
10.0
 42
-1.0
  0
SEQEND
  0
ENDBLK
  0
BLOCK
  8
0
  2
TRIANGLE
 70
0
 10
10.0
 20
10.0
  0
POLYLINE
  8
0
 66
  1
  0
VERTEX
  8
0
 10
10.0
 20
14.5
  0
VERTEX
  8
0
 10
4.5
 20
5.0
  0
VERTEX
  8
0
 10
15.5
 20
5.0
  0
VERTEX
  8
0
 10
10.0
 20
14.5
  0
SEQEND
  0
ENDBLK
  0
BLOCK
  8
0
  2
TRIANGLE_F
 70
0
 10
10.0
 20
10.0
  0
POLYLINE
  8
0
 66
  1
 41
11.0
  0
VERTEX
  8
0
 10
10.0
 20
14.5
  0
VERTEX
  8
0
 10
10.0
 20
5.0
 40
11.0
  0
SEQEND
  0
ENDBLK
  0
BLOCK
  8
0
  2
DIAMOND
 70
0
 10
10.0
 20
10.0
  0
POLYLINE
  8
0
 66
  1
  0
VERTEX
  8
0
 10
10.0
 20
4.5
  0
VERTEX
  8
0
 10
14.5
 20
10.0
  0
VERTEX
  8
0
 10
10.0
 20
15.5
  0
VERTEX
  8
0
 10
5.5
 20
10.0
  0
VERTEX
  8
0
 10
10.0
 20
4.5
  0
SEQEND
  0
ENDBLK
  0
BLOCK
  8
0
  2
DIAMOND_F
 70
0
 10
10.0
 20
10.0
  0
POLYLINE
  8
0
 66
  1
 41
9.0
  0
VERTEX
  8
0
 10
10.0
 20
4.5
  0
VERTEX
  8
0
 10
10.0
 20
10.0
 40
9.0
 41
0.0
  0
VERTEX
  8
0
 10
10.0
 20
15.5
 41
0.0
  0
SEQEND
  0
ENDBLK
  0
BLOCK
  8
0
  2
TRIANGLE2
 70
0
 10
10.0
 20
10.0
  0
POLYLINE
  8
0
 66
  1
  0
VERTEX
  8
0
 10
10.0
 20
5.5
  0
VERTEX
  8
0
 10
15.5
 20
15.0
  0
VERTEX
  8
0
 10
4.5
 20
15.0
  0
VERTEX
  8
0
 10
10.0
 20
5.5
  0
SEQEND
  0
ENDBLK
  0
BLOCK
  8
0
  2
TRIANGLE2_F
 70
0
 10
10.0
 20
10.0
  0
POLYLINE
  8
0
 66
  1
 41
11.0
  0
VERTEX
  8
0
 10
10.0
 20
5.5
  0
VERTEX
  8
0
 10
10.0
 20
15.0
 40
11.0
  0
SEQEND
  0
ENDBLK
  0
BLOCK
  8
0
  2
CIRCLE12_F
 70
0
 10
10.0
 20
10.0
  0
POLYLINE
  8
0
 66
  1
  0
VERTEX
  8
0
 10
10.0
 20
15.0
 42
1.0
  0
VERTEX
  8
0
 10
10.0
 20
5.0
  0
SEQEND
  0
POLYLINE
  8
0
 66
  1
 40
5.0
 41
5.0
  0
VERTEX
  8
0
 10
10.0
 20
7.5
 42
1.0
  0
VERTEX
  8
0
 10
10.0
 20
12.5
 42
0.0
  0
SEQEND
  0
ENDBLK
  0
BLOCK
  8
0
  2
CIRCLE24_F
 70
0
 10
10.0
 20
10.0
  0
POLYLINE
  8
0
 66
  1
  0
VERTEX
  8
0
 10
5.0
 20
10.0
 42
0.41
  0
VERTEX
  8
0
 10
10.0
 20
5.0
 42
0.0
  0
SEQEND
  0
POLYLINE
  8
0
 66
  1
 40
5.0
 41
5.0
  0
VERTEX
  8
0
 10
10.0
 20
12.5
 42
0.41
  0
VERTEX
  8
0
 10
7.5
 20
10.0
 42
1.0
  0
SEQEND
  0
POLYLINE
  8
0
 66
  1
  0
VERTEX
  8
0
 10
15.0
 20
10.0
 42
0.41
  0
VERTEX
  8
0
 10
10.0
 20
15.0
 42
0.0
  0
SEQEND
  0
POLYLINE
  8
0
 66
  1
 40
5.0
 41
5.0
  0
VERTEX
  8
0
 10
10.0
 20
7.5
 42
0.41
  0
VERTEX
  8
0
 10
12.5
 20
10.0
 42
-1.0
  0
SEQEND
  0
ENDBLK
  0
BLOCK
  8
0
  2
CIRCLE134_F
 70
0
 10
10.0
 20
10.0
  0
POLYLINE
  8
0
 66
  1
 40
5.0
 41
5.0
  0
VERTEX
  8
0
 10
12.5
 20
10.0
 42
2.41
  0
VERTEX
  8
0
 10
10.0
 20
7.5
 42
0.0
  0
SEQEND
  0
POLYLINE
  8
0
 66
  1
  0
VERTEX
  8
0
 10
10.0
 20
5.0
 42
0.41
  0
VERTEX
  8
0
 10
15.0
 20
10.0
 42
-1.0
  0
SEQEND
  0
ENDBLK
  0
BLOCK
  8
0
  2
CIRCLE_P
 70
0
 10
10.0
 20
10.0
  0
POLYLINE
  8
0
 66
  1
  0
VERTEX
  8
0
 10
5.0
 20
10.0
  0
VERTEX
  8
0
 10
15.0
 20
10.0
  0
SEQEND
  0
POLYLINE
  8
0
 66
  1
  0
VERTEX
  8
0
 10
10.0
 20
5.0
  0
VERTEX
  8
0
 10
10.0
 20
15.0
  0
SEQEND
  0
POLYLINE
  8
0
 66
  1
  0
VERTEX
  8
0
 10
10.0
 20
5.0
 42
0.41
  0
VERTEX
  8
0
 10
15.0
 20
10.0
 42
0.41
  0
VERTEX
  8
0
 10
10.0
 20
15.0
 42
0.41
  0
VERTEX
  8
0
 10
5.0
 20
10.0
 42
0.41
  0
VERTEX
  8
0
 10
10.0
 20
5.0
 42
0.0
  0
SEQEND
  0
ENDBLK
  0
BLOCK
  8
0
  2
SQUARE_P
 70
0
 10
10.0
 20
10.0
  0
POLYLINE
  8
0
 66
  1
  0
VERTEX
  8
0
 10
10.0
 20
15.0
  0
VERTEX
  8
0
 10
10.0
 20
5.0
  0
SEQEND
  0
POLYLINE
  8
0
 66
  1
  0
VERTEX
  8
0
 10
5.0
 20
10.0
  0
VERTEX
  8
0
 10
15.0
 20
10.0
  0
SEQEND
  0
POLYLINE
  8
0
 66
  1
  0
VERTEX
  8
0
 10
5.0
 20
5.0
  0
VERTEX
  8
0
 10
15.0
 20
5.0
  0
VERTEX
  8
0
 10
15.0
 20
15.0
  0
VERTEX
  8
0
 10
5.0
 20
15.0
  0
VERTEX
  8
0
 10
5.0
 20
5.0
  0
SEQEND
  0
ENDBLK
  0
BLOCK
  8
0
  2
SQUAREX
 70
0
 10
10.0
 20
10.0
  0
POLYLINE
  8
0
 66
  1
  0
VERTEX
  8
0
 10
5.0
 20
15.0
  0
VERTEX
  8
0
 10
15.0
 20
5.0
  0
SEQEND
  0
POLYLINE
  8
0
 66
  1
  0
VERTEX
  8
0
 10
5.0
 20
5.0
  0
VERTEX
  8
0
 10
15.0
 20
15.0
  0
SEQEND
  0
POLYLINE
  8
0
 66
  1
  0
VERTEX
  8
0
 10
5.0
 20
5.0
  0
VERTEX
  8
0
 10
15.0
 20
5.0
  0
VERTEX
  8
0
 10
15.0
 20
15.0
  0
VERTEX
  8
0
 10
5.0
 20
15.0
  0
VERTEX
  8
0
 10
5.0
 20
5.0
  0
SEQEND
  0
ENDBLK
  0
BLOCK
  8
0
  2
SQUAREV
 70
0
 10
10.0
 20
10.0
  0
POLYLINE
  8
0
 66
  1
  0
VERTEX
  8
0
 10
5.0
 20
15.0
  0
VERTEX
  8
0
 10
15.0
 20
15.0
  0
VERTEX
  8
0
 10
15.0
 20
5.0
  0
VERTEX
  8
0
 10
5.0
 20
5.0
  0
VERTEX
  8
0
 10
5.0
 20
15.0
  0
VERTEX
  8
0
 10
10.0
 20
5.0
  0
VERTEX
  8
0
 10
15.0
 20
15.0
  0
SEQEND
  0
ENDBLK
  0
BLOCK
  8
0
  2
SQUARE
 70
0
 10
10.0
 20
10.0
  0
POLYLINE
  8
0
 66
  1
  0
VERTEX
  8
0
 10
5.0
 20
5.0
  0
VERTEX
  8
0
 10
15.0
 20
5.0
  0
VERTEX
  8
0
 10
15.0
 20
15.0
  0
VERTEX
  8
0
 10
5.0
 20
15.0
  0
VERTEX
  8
0
 10
5.0
 20
5.0
  0
SEQEND
  0
ENDBLK
  0
BLOCK
  8
0
  2
SQUARE_F
 70
0
 10
10.0
 20
10.0
  0
POLYLINE
  8
0
 66
  1
 40
10.0
 41
10.0
  0
VERTEX
  8
0
 10
5.0
 20
10.0
  0
VERTEX
  8
0
 10
15.0
 20
10.0
  0
SEQEND
  0
ENDBLK
  0
BLOCK
  8
0
  2
ALIGNH
 70
2
 10
0.0
 20
0.0
  0
INSERT
  8
0
  2
SQUARE
 10
0.000000
 20
0.000000
 30
0.000000
 41
1.000000
 42
1.000000
  0
ATTDEF
  8
0
 40
1
 70
0
 10
0.0
 20
0.0
 30
0.0
  1

  3
nearest p-Line station
  2
PSTN
  0
ATTDEF
  8
0
 40
1
 70
0
 10
0.0
 20
0.0
 30
0.0
  1

  3
curve information
  2
CURVE
  0
ENDBLK
  0
BLOCK
  8
0
  2
ALIGNV
 70
2
 10
0.0
 20
0.0
  0
INSERT
  8
0
  2
SQUAREV
 10
0.000000
 20
0.000000
 30
0.000000
 41
1.000000
 42
1.000000
  0
ATTDEF
  8
0
 40
1
 70
0
 10
0.0
 20
0.0
 30
0.0
  1

  3
nearest p-Line station
  2
PSTN
  0
ATTDEF
  8
0
 40
1
 70
0
 10
0.0
 20
0.0
 30
0.0
  1

  3
curve information
  2
CURVE
  0
ENDBLK
  0
ENDSEC
  0
SECTION
  2
ENTITIES
  0
POLYLINE
  8
SLPSTAKE
 70
  136
 66
  1
  0
VERTEX
 70
   32
  8
SLPSTAKE
 10
671.479708
 20
180.872843
 30
240.358030
  0
VERTEX
 70
   32
  8
SLPSTAKE
 10
671.107261
 20
180.722142
 30
240.379598
  0
VERTEX
 70
   32
  8
SLPSTAKE
 10
636.973135
 20
161.653438
 30
243.803269
  0
VERTEX
 70
   32
  8
SLPSTAKE
 10
631.149989
 20
158.720823
 30
244.461028
  0
VERTEX
 70
   32
  8
SLPSTAKE
 10
630.643887
 20
158.414510
 30
244.461718
  0
VERTEX
 70
   32
  8
SLPSTAKE
 10
609.736214
 20
147.999555
 30
245.046773
  0
VERTEX
 70
   32
  8
SLPSTAKE
 10
605.907851
 20
145.763047
 30
245.137450
  0
VERTEX
 70
   32
  8
SLPSTAKE
 10
598.351076
 20
138.034295
 30
244.896213
  0
VERTEX
 70
   32
  8
SLPSTAKE
 10
585.097664
 20
130.149386
 30
249.705841
  0
VERTEX
 70
   32
  8
SLPSTAKE
 10
581.600767
 20
126.503952
 30
250.776188
  0
VERTEX
 70
   32
  8
SLPSTAKE
 10
579.853223
 20
124.563555
 30
251.323174
  0
VERTEX
 70
   32
  8
SLPSTAKE
 10
576.977632
 20
121.659432
 30
252.129647
  0
VERTEX
 70
   32
  8
SLPSTAKE
 10
558.468445
 20
110.175970
 30
255.856827
  0
VERTEX
 70
   32
  8
SLPSTAKE
 10
546.998924
 20
107.186273
 30
257.334686
  0
VERTEX
 70
   32
  8
SLPSTAKE
 10
537.232548
 20
107.329604
 30
258.668244
  0
VERTEX
 70
   32
  8
SLPSTAKE
 10
520.752560
 20
111.148883
 30
260.042843
  0
VERTEX
 70
   32
  8
SLPSTAKE
 10
510.195436
 20
115.693458
 30
259.944556
  0
VERTEX
 70
   32
  8
SLPSTAKE
 10
502.552973
 20
121.224849
 30
260.662201
  0
VERTEX
 70
   32
  8
SLPSTAKE
 10
497.919539
 20
123.921693
 30
260.813783
  0
VERTEX
 70
   32
  8
SLPSTAKE
 10
488.191851
 20
133.744661
 30
261.525075
  0
VERTEX
 70
   32
  8
SLPSTAKE
 10
483.970085
 20
146.584282
 30
263.235130
  0
VERTEX
 70
   32
  8
SLPSTAKE
 10
487.523487
 20
156.304515
 30
267.030964
  0
VERTEX
 70
   32
  8
SLPSTAKE
 10
488.053454
 20
157.429720
 30
267.478161
  0
VERTEX
 70
   32
  8
SLPSTAKE
 10
488.364297
 20
158.249985
 30
267.738555
  0
VERTEX
 70
   32
  8
SLPSTAKE
 10
490.647783
 20
168.277292
 30
271.340030
  0
VERTEX
 70
   32
  8
SLPSTAKE
 10
490.702043
 20
177.360778
 30
274.940037
  0
VERTEX
 70
   32
  8
SLPSTAKE
 10
490.738700
 20
177.723297
 30
275.033632
  0
VERTEX
 70
   32
  8
SLPSTAKE
 10
490.050090
 20
188.553574
 30
280.404919
  0
VERTEX
 70
   32
  8
SLPSTAKE
 10
490.619393
 20
194.831166
 30
282.108467
  0
VERTEX
 70
   32
  8
SLPSTAKE
 10
491.081018
 20
196.824987
 30
282.248475
  0
VERTEX
 70
   32
  8
SLPSTAKE
 10
480.655575
 20
211.719570
 30
289.145073
  0
VERTEX
 70
   32
  8
SLPSTAKE
 10
485.661072
 20
215.519790
 30
287.803022
  0
VERTEX
 70
   32
  8
SLPSTAKE
 10
503.332553
 20
212.603808
 30
278.775360
  0
VERTEX
 70
   32
  8
SLPSTAKE
 10
506.263774
 20
222.505145
 30
285.440016
  0
VERTEX
 70
   32
  8
SLPSTAKE
 10
515.971034
 20
227.735108
 30
284.788990
  0
VERTEX
 70
   32
  8
SLPSTAKE
 10
518.260553
 20
228.634348
 30
284.695341
  0
VERTEX
 70
   32
  8
SLPSTAKE
 10
524.177441
 20
232.312915
 30
286.330898
  0
VERTEX
 70
   32
  8
SLPSTAKE
 10
532.440463
 20
237.289494
 30
288.304299
  0
VERTEX
 70
   32
  8
SLPSTAKE
 10
547.004253
 20
247.220782
 30
290.188272
  0
VERTEX
 70
   32
  8
SLPSTAKE
 10
548.807211
 20
247.741615
 30
289.495666
  0
VERTEX
 70
   32
  8
SLPSTAKE
 10
555.875455
 20
253.323232
 30
287.073998
  0
VERTEX
 70
   32
  8
SLPSTAKE
 10
562.932345
 20
255.901896
 30
289.277712
  0
VERTEX
 70
   32
  8
SLPSTAKE
 10
570.711787
 20
263.278103
 30
292.168692
  0
VERTEX
 70
   32
  8
SLPSTAKE
 10
570.745360
 20
263.370162
 30
292.374837
  0
VERTEX
 70
   32
  8
SLPSTAKE
 10
574.160565
 20
269.847732
 30
295.299380
  0
VERTEX
 70
   32
  8
SLPSTAKE
 10
581.575503
 20
276.660842
 30
294.187439
  0
VERTEX
 70
   32
  8
SLPSTAKE
 10
589.839194
 20
283.976989
 30
293.235032
  0
VERTEX
 70
   32
  8
SLPSTAKE
 10
592.656447
 20
293.637701
 30
299.442478
  0
VERTEX
 70
   32
  8
SLPSTAKE
 10
596.837922
 20
300.012094
 30
301.510277
  0
VERTEX
 70
   32
  8
SLPSTAKE
 10
598.385699
 20
301.182014
 30
301.590611
  0
VERTEX
 70
   32
  8
SLPSTAKE
 10
604.580013
 20
304.948819
 30
301.347858
  0
VERTEX
 70
   32
  8
SLPSTAKE
 10
612.768412
 20
310.859234
 30
302.208947
  0
VERTEX
 70
   32
  8
SLPSTAKE
 10
624.359701
 20
313.875861
 30
295.776348
  0
VERTEX
 70
   32
  8
SLPSTAKE
 10
626.324848
 20
315.805745
 30
295.232934
  0
VERTEX
 70
   32
  8
SLPSTAKE
 10
627.703140
 20
315.422630
 30
295.887297
  0
VERTEX
 70
   32
  8
SLPSTAKE
 10
630.356876
 20
317.228776
 30
298.154487
  0
VERTEX
 70
   32
  8
SLPSTAKE
 10
644.799951
 20
324.468086
 30
301.169699
  0
VERTEX
 70
   32
  8
SLPSTAKE
 10
646.530696
 20
325.216923
 30
301.428147
  0
VERTEX
 70
   32
  8
SLPSTAKE
 10
649.625786
 20
337.218265
 30
305.784118
  0
VERTEX
 70
   32
  8
SLPSTAKE
 10
663.175967
 20
339.313292
 30
306.097550
  0
VERTEX
 70
   32
  8
SLPSTAKE
 10
666.140666
 20
340.899786
 30
306.132313
  0
VERTEX
 70
   32
  8
SLPSTAKE
 10
672.550656
 20
346.466304
 30
307.206283
  0
VERTEX
 70
   32
  8
SLPSTAKE
 10
684.790929
 20
350.687917
 30
301.122376
  0
VERTEX
 70
   32
  8
SLPSTAKE
 10
687.245532
 20
355.279374
 30
305.643706
  0
VERTEX
 70
   32
  8
SLPSTAKE
 10
692.397292
 20
361.222169
 30
308.380222
  0
VERTEX
 70
   32
  8
SLPSTAKE
 10
697.295352
 20
362.907500
 30
309.099574
  0
VERTEX
 70
   32
  8
SLPSTAKE
 10
700.740817
 20
363.684037
 30
309.410511
  0
VERTEX
 70
   32
  8
SLPSTAKE
 10
713.957084
 20
366.300751
 30
310.029668
  0
VERTEX
 70
   32
  8
SLPSTAKE
 10
731.442297
 20
365.870839
 30
311.852988
  0
VERTEX
 70
   32
  8
SLPSTAKE
 10
745.358251
 20
371.665769
 30
313.294640
  0
VERTEX
 70
   32
  8
SLPSTAKE
 10
750.446714
 20
375.494394
 30
314.311529
  0
VERTEX
 70
   32
  8
SLPSTAKE
 10
756.639736
 20
378.773483
 30
314.187702
  0
VERTEX
 70
   32
  8
SLPSTAKE
 10
758.984718
 20
379.920765
 30
314.092166
  0
VERTEX
 70
   32
  8
SLPSTAKE
 10
763.455332
 20
384.118150
 30
314.949993
  0
VERTEX
 70
   32
  8
SLPSTAKE
 10
763.929188
 20
384.539168
 30
315.260137
  0
VERTEX
 70
   32
  8
SLPSTAKE
 10
766.391897
 20
392.159166
 30
316.102458
  0
VERTEX
 70
   32
  8
SLPSTAKE
 10
765.143982
 20
399.252694
 30
315.359944
  0
VERTEX
 70
   32
  8
SLPSTAKE
 10
764.851753
 20
399.913438
 30
315.503161
  0
VERTEX
 70
   32
  8
SLPSTAKE
 10
764.683448
 20
400.420382
 30
315.678495
  0
VERTEX
 70
   32
  8
SLPSTAKE
 10
757.682336
 20
406.332770
 30
317.780908
  0
VERTEX
 70
   32
  8
SLPSTAKE
 10
748.985542
 20
408.220710
 30
320.489911
  0
VERTEX
 70
   32
  8
SLPSTAKE
 10
746.308850
 20
407.722707
 30
320.653319
  0
VERTEX
 70
   32
  8
SLPSTAKE
 10
736.908646
 20
407.071378
 30
321.325593
  0
VERTEX
 70
   32
  8
SLPSTAKE
 10
714.997506
 20
402.804994
 30
322.433693
  0
VERTEX
 70
   32
  8
SLPSTAKE
 10
698.171037
 20
397.033133
 30
321.715002
  0
VERTEX
 70
   32
  8
SLPSTAKE
 10
693.248691
 20
395.701725
 30
321.828164
  0
VERTEX
 70
   32
  8
SLPSTAKE
 10
689.008388
 20
394.183173
 30
321.858412
  0
VERTEX
 70
   32
  8
SLPSTAKE
 10
678.018800
 20
391.548852
 30
319.190002
  0
VERTEX
 70
   32
  8
SLPSTAKE
 10
664.347098
 20
384.804117
 30
323.115888
  0
SEQEND
  0
POLYLINE
  8
SLPSTAKE
 70
  136
 66
  1
  0
VERTEX
 70
   32
  8
SLPSTAKE
 10
668.588391
 20
186.440274
 30
240.459588
  0
VERTEX
 70
   32
  8
SLPSTAKE
 10
668.239363
 20
186.244479
 30
240.471912
  0
VERTEX
 70
   32
  8
SLPSTAKE
 10
632.785216
 20
169.717568
 30
245.645065
  0
VERTEX
 70
   32
  8
SLPSTAKE
 10
626.987298
 20
166.736377
 30
246.288939
  0
VERTEX
 70
   32
  8
SLPSTAKE
 10
626.944010
 20
166.680666
 30
246.287945
  0
VERTEX
 70
   32
  8
SLPSTAKE
 10
606.053290
 20
157.704174
 30
246.984157
  0
VERTEX
 70
   32
  8
SLPSTAKE
 10
601.075791
 20
155.943915
 30
247.217321
  0
VERTEX
 70
   32
  8
SLPSTAKE
 10
588.851584
 20
150.536715
 30
247.592465
  0
VERTEX
 70
   32
  8
SLPSTAKE
 10
577.410390
 20
135.801569
 30
251.238427
  0
VERTEX
 70
   32
  8
SLPSTAKE
 10
574.761198
 20
131.532819
 30
252.133051
  0
VERTEX
 70
   32
  8
SLPSTAKE
 10
573.277326
 20
129.398578
 30
252.553432
  0
VERTEX
 70
   32
  8
SLPSTAKE
 10
571.257221
 20
126.693303
 30
253.159872
  0
VERTEX
 70
   32
  8
SLPSTAKE
 10
555.479258
 20
117.699794
 30
257.071229
  0
VERTEX
 70
   32
  8
SLPSTAKE
 10
546.000518
 20
115.460877
 30
258.771736
  0
VERTEX
 70
   32
  8
SLPSTAKE
 10
538.011715
 20
115.701247
 30
260.357870
  0
VERTEX
 70
   32
  8
SLPSTAKE
 10
524.985489
 20
119.490522
 30
262.257070
  0
VERTEX
 70
   32
  8
SLPSTAKE
 10
516.663399
 20
123.163421
 30
262.110042
  0
VERTEX
 70
   32
  8
SLPSTAKE
 10
510.091582
 20
129.931316
 30
262.831901
  0
VERTEX
 70
   32
  8
SLPSTAKE
 10
506.483177
 20
133.811993
 30
263.265236
  0
VERTEX
 70
   32
  8
SLPSTAKE
 10
501.380928
 20
141.092420
 30
264.507573
  0
VERTEX
 70
   32
  8
SLPSTAKE
 10
498.635498
 20
148.929060
 30
266.114341
  0
VERTEX
 70
   32
  8
SLPSTAKE
 10
497.368320
 20
155.370984
 30
268.008988
  0
VERTEX
 70
   32
  8
SLPSTAKE
 10
497.162799
 20
156.260931
 30
268.390529
  0
VERTEX
 70
   32
  8
SLPSTAKE
 10
497.118828
 20
156.908390
 30
268.610888
  0
VERTEX
 70
   32
  8
SLPSTAKE
 10
499.109979
 20
166.980497
 30
271.148968
  0
VERTEX
 70
   32
  8
SLPSTAKE
 10
501.579693
 20
175.693826
 30
274.449789
  0
VERTEX
 70
   32
  8
SLPSTAKE
 10
501.652780
 20
176.050761
 30
274.542459
  0
VERTEX
 70
   32
  8
SLPSTAKE
 10
503.241188
 20
186.532095
 30
276.404344
  0
VERTEX
 70
   32
  8
SLPSTAKE
 10
503.998024
 20
192.780951
 30
277.227383
  0
VERTEX
 70
   32
  8
SLPSTAKE
 10
504.193752
 20
194.254959
 30
277.433523
  0
VERTEX
 70
   32
  8
SLPSTAKE
 10
506.553446
 20
200.987643
 30
277.604929
  0
VERTEX
 70
   32
  8
SLPSTAKE
 10
506.444219
 20
204.523640
 30
278.018646
  0
VERTEX
 70
   32
  8
SLPSTAKE
 10
510.595272
 20
207.389014
 30
277.042363
  0
VERTEX
 70
   32
  8
SLPSTAKE
 10
513.950952
 20
214.123230
 30
280.254944
  0
VERTEX
 70
   32
  8
SLPSTAKE
 10
520.507380
 20
219.617543
 30
281.663815
  0
VERTEX
 70
   32
  8
SLPSTAKE
 10
523.040486
 20
220.080889
 30
281.512719
  0
VERTEX
 70
   32
  8
SLPSTAKE
 10
528.743340
 20
224.142458
 30
283.171120
  0
VERTEX
 70
   32
  8
SLPSTAKE
 10
538.099913
 20
228.432915
 30
284.845203
  0
VERTEX
 70
   32
  8
SLPSTAKE
 10
554.877699
 20
236.368091
 30
284.495291
  0
VERTEX
 70
   32
  8
SLPSTAKE
 10
557.746403
 20
235.419907
 30
283.122256
  0
VERTEX
 70
   32
  8
SLPSTAKE
 10
569.719764
 20
234.240354
 30
278.834068
  0
VERTEX
 70
   32
  8
SLPSTAKE
 10
571.710780
 20
243.801776
 30
284.055523
  0
VERTEX
 70
   32
  8
SLPSTAKE
 10
577.772993
 20
253.544996
 30
288.168278
  0
VERTEX
 70
   32
  8
SLPSTAKE
 10
578.799379
 20
254.768945
 30
288.456999
  0
VERTEX
 70
   32
  8
SLPSTAKE
 10
582.455403
 20
262.955417
 30
291.892647
  0
VERTEX
 70
   32
  8
SLPSTAKE
 10
589.899936
 20
269.743935
 30
290.805817
  0
VERTEX
 70
   32
  8
SLPSTAKE
 10
605.958694
 20
270.583037
 30
283.922039
  0
VERTEX
 70
   32
  8
SLPSTAKE
 10
603.203910
 20
284.873643
 30
292.237134
  0
VERTEX
 70
   32
  8
SLPSTAKE
 10
605.294637
 20
290.761940
 30
294.269912
  0
VERTEX
 70
   32
  8
SLPSTAKE
 10
605.530968
 20
290.821402
 30
294.310622
  0
VERTEX
 70
   32
  8
SLPSTAKE
 10
610.917723
 20
295.759165
 30
295.363703
  0
VERTEX
 70
   32
  8
SLPSTAKE
 10
619.199141
 20
301.534703
 30
295.985443
  0
VERTEX
 70
   32
  8
SLPSTAKE
 10
636.418788
 20
291.962574
 30
284.657824
  0
VERTEX
 70
   32
  8
SLPSTAKE
 10
637.945270
 20
288.504547
 30
282.320189
  0
VERTEX
 70
   32
  8
SLPSTAKE
 10
637.384855
 20
292.676259
 30
285.085749
  0
VERTEX
 70
   32
  8
SLPSTAKE
 10
636.342975
 20
303.164942
 30
292.063303
  0
VERTEX
 70
   32
  8
SLPSTAKE
 10
648.474706
 20
315.834560
 30
298.483582
  0
VERTEX
 70
   32
  8
SLPSTAKE
 10
650.872211
 20
316.892823
 30
298.697296
  0
VERTEX
 70
   32
  8
SLPSTAKE
 10
659.808373
 20
320.943598
 30
299.333038
  0
VERTEX
 70
   32
  8
SLPSTAKE
 10
670.808854
 20
327.113770
 30
301.888733
  0
VERTEX
 70
   32
  8
SLPSTAKE
 10
674.201268
 20
329.499409
 30
301.915289
  0
VERTEX
 70
   32
  8
SLPSTAKE
 10
681.168125
 20
335.629242
 30
302.083518
  0
VERTEX
 70
   32
  8
SLPSTAKE
 10
695.190100
 20
337.610240
 30
294.132182
  0
VERTEX
 70
   32
  8
SLPSTAKE
 10
698.437347
 20
341.204893
 30
295.349665
  0
VERTEX
 70
   32
  8
SLPSTAKE
 10
697.501736
 20
350.708353
 30
303.949677
  0
VERTEX
 70
   32
  8
SLPSTAKE
 10
700.078639
 20
351.135052
 30
304.248718
  0
VERTEX
 70
   32
  8
SLPSTAKE
 10
703.551722
 20
351.794767
 30
304.570007
  0
VERTEX
 70
   32
  8
SLPSTAKE
 10
716.956477
 20
353.614237
 30
305.625459
  0
VERTEX
 70
   32
  8
SLPSTAKE
 10
733.172682
 20
358.551842
 30
309.029665
  0
VERTEX
 70
   32
  8
SLPSTAKE
 10
748.337456
 20
362.331399
 30
309.614500
  0
VERTEX
 70
   32
  8
SLPSTAKE
 10
754.724880
 20
364.958908
 30
310.460264
  0
VERTEX
 70
   32
  8
SLPSTAKE
 10
761.147722
 20
367.672002
 30
310.412076
  0
VERTEX
 70
   32
  8
SLPSTAKE
 10
765.143739
 20
369.734178
 30
310.373641
  0
VERTEX
 70
   32
  8
SLPSTAKE
 10
772.884312
 20
376.747131
 30
311.672870
  0
VERTEX
 70
   32
  8
SLPSTAKE
 10
774.210652
 20
377.619498
 30
311.699845
  0
VERTEX
 70
   32
  8
SLPSTAKE
 10
778.071391
 20
391.700280
 30
313.244726
  0
VERTEX
 70
   32
  8
SLPSTAKE
 10
775.585422
 20
403.850712
 30
315.768951
  0
VERTEX
 70
   32
  8
SLPSTAKE
 10
775.294284
 20
404.511937
 30
315.913361
  0
VERTEX
 70
   32
  8
SLPSTAKE
 10
774.922336
 20
405.413618
 30
316.070038
  0
VERTEX
 70
   32
  8
SLPSTAKE
 10
765.659996
 20
420.217490
 30
322.140615
  0
VERTEX
 70
   32
  8
SLPSTAKE
 10
747.610975
 20
426.750749
 30
327.901629
  0
VERTEX
 70
   32
  8
SLPSTAKE
 10
740.956160
 20
425.366049
 30
327.937990
  0
VERTEX
 70
   32
  8
SLPSTAKE
 10
732.083142
 20
422.977175
 30
328.788244
  0
VERTEX
 70
   32
  8
SLPSTAKE
 10
711.127687
 20
415.560672
 30
327.760978
  0
VERTEX
 70
   32
  8
SLPSTAKE
 10
691.441051
 20
419.216474
 30
329.804936
  0
VERTEX
 70
   32
  8
SLPSTAKE
 10
686.679155
 20
413.997086
 30
327.619416
  0
VERTEX
 70
   32
  8
SLPSTAKE
 10
681.899506
 20
411.237795
 30
327.323427
  0
VERTEX
 70
   32
  8
SLPSTAKE
 10
673.406392
 20
402.614289
 30
321.553873
  0
VERTEX
 70
   32
  8
SLPSTAKE
 10
659.404553
 20
396.661569
 30
326.282241
  0
SEQEND
  0
POLYLINE
  8
REDGE
 70
  136
 66
  1
  0
VERTEX
 70
   32
  8
REDGE
 10
671.381610
 20
181.061737
 30
240.500000
  0
VERTEX
 70
   32
  8
REDGE
 10
671.024066
 20
180.882340
 30
240.500000
  0
VERTEX
 70
   32
  8
REDGE
 10
636.343341
 20
162.866150
 30
244.714722
  0
VERTEX
 70
   32
  8
REDGE
 10
630.557940
 20
159.860855
 30
245.317856
  0
VERTEX
 70
   32
  8
REDGE
 10
630.100306
 20
159.628963
 30
245.349197
  0
VERTEX
 70
   32
  8
REDGE
 10
608.443889
 20
151.404872
 30
247.476181
  0
VERTEX
 70
   32
  8
REDGE
 10
604.109637
 20
149.551779
 30
247.934723
  0
VERTEX
 70
   32
  8
REDGE
 10
594.193506
 20
143.506134
 30
249.479935
  0
VERTEX
 70
   32
  8
REDGE
 10
582.745417
 20
131.878911
 30
251.653244
  0
VERTEX
 70
   32
  8
REDGE
 10
579.778503
 20
127.843792
 30
252.284821
  0
VERTEX
 70
   32
  8
REDGE
 10
578.239253
 20
125.750250
 30
252.659363
  0
VERTEX
 70
   32
  8
REDGE
 10
575.789817
 20
122.704690
 30
253.184998
  0
VERTEX
 70
   32
  8
REDGE
 10
558.344609
 20
110.487666
 30
256.080536
  0
VERTEX
 70
   32
  8
REDGE
 10
546.939266
 20
107.680713
 30
257.666870
  0
VERTEX
 70
   32
  8
REDGE
 10
537.262817
 20
107.654832
 30
258.886108
  0
VERTEX
 70
   32
  8
REDGE
 10
521.386527
 20
112.398212
 30
260.977295
  0
VERTEX
 70
   32
  8
REDGE
 10
512.528254
 20
118.387670
 30
262.321625
  0
VERTEX
 70
   32
  8
REDGE
 10
505.423182
 20
124.539702
 30
263.586853
  0
VERTEX
 70
   32
  8
REDGE
 10
501.440517
 20
127.988134
 30
264.401550
  0
VERTEX
 70
   32
  8
REDGE
 10
494.118761
 20
137.046598
 30
266.050415
  0
VERTEX
 70
   32
  8
REDGE
 10
490.471676
 20
147.623788
 30
267.626740
  0
VERTEX
 70
   32
  8
REDGE
 10
490.189179
 20
156.051743
 30
268.816956
  0
VERTEX
 70
   32
  8
REDGE
 10
490.310892
 20
157.140076
 30
268.996216
  0
VERTEX
 70
   32
  8
REDGE
 10
490.422557
 20
157.934565
 30
269.127441
  0
VERTEX
 70
   32
  8
REDGE
 10
491.976451
 20
168.073679
 30
270.973816
  0
VERTEX
 70
   32
  8
REDGE
 10
493.337017
 20
176.956980
 30
272.591461
  0
VERTEX
 70
   32
  8
REDGE
 10
493.392192
 20
177.316660
 30
272.656952
  0
VERTEX
 70
   32
  8
REDGE
 10
494.998393
 20
187.795268
 30
274.545837
  0
VERTEX
 70
   32
  8
REDGE
 10
495.951579
 20
194.014032
 30
275.666840
  0
VERTEX
 70
   32
  8
REDGE
 10
496.268415
 20
195.808284
 30
275.969360
  0
VERTEX
 70
   32
  8
REDGE
 10
498.824913
 20
204.190302
 30
277.427032
  0
VERTEX
 70
   32
  8
REDGE
 10
500.482866
 20
207.677731
 30
278.018646
  0
VERTEX
 70
   32
  8
REDGE
 10
503.471775
 20
212.503843
 30
278.889679
  0
VERTEX
 70
   32
  8
REDGE
 10
509.343687
 20
219.146882
 30
280.254944
  0
VERTEX
 70
   32
  8
REDGE
 10
517.478843
 20
225.036959
 30
281.802704
  0
VERTEX
 70
   32
  8
REDGE
 10
519.606957
 20
226.225024
 30
282.205322
  0
VERTEX
 70
   32
  8
REDGE
 10
525.681847
 20
229.620852
 30
283.355072
  0
VERTEX
 70
   32
  8
REDGE
 10
534.275665
 20
234.417551
 30
284.841980
  0
VERTEX
 70
   32
  8
REDGE
 10
548.697496
 20
244.886831
 30
287.513092
  0
VERTEX
 70
   32
  8
REDGE
 10
550.126756
 20
245.922765
 30
287.775055
  0
VERTEX
 70
   32
  8
REDGE
 10
557.408738
 20
251.209768
 30
288.815552
  0
VERTEX
 70
   32
  8
REDGE
 10
563.261094
 20
255.448751
 30
289.651123
  0
VERTEX
 70
   32
  8
REDGE
 10
571.862230
 20
261.692342
 30
290.880035
  0
VERTEX
 70
   32
  8
REDGE
 10
572.148760
 20
261.871413
 30
290.945038
  0
VERTEX
 70
   32
  8
REDGE
 10
576.873992
 20
267.593102
 30
291.657562
  0
VERTEX
 70
   32
  8
REDGE
 10
583.251006
 20
275.268639
 30
292.569824
  0
VERTEX
 70
   32
  8
REDGE
 10
590.222014
 20
283.658898
 30
293.567047
  0
VERTEX
 70
   32
  8
REDGE
 10
596.082488
 20
290.790947
 30
294.410889
  0
VERTEX
 70
   32
  8
REDGE
 10
600.509519
 20
295.996015
 30
294.998108
  0
VERTEX
 70
   32
  8
REDGE
 10
601.478194
 20
296.697908
 30
295.070007
  0
VERTEX
 70
   32
  8
REDGE
 10
607.435958
 20
300.807710
 30
295.452240
  0
VERTEX
 70
   32
  8
REDGE
 10
615.748458
 20
306.538179
 30
295.985443
  0
VERTEX
 70
   32
  8
REDGE
 10
624.924469
 20
312.849587
 30
296.557678
  0
VERTEX
 70
   32
  8
REDGE
 10
627.169203
 20
313.822004
 30
296.670959
  0
VERTEX
 70
   32
  8
REDGE
 10
628.197951
 20
314.260114
 30
296.730011
  0
VERTEX
 70
   32
  8
REDGE
 10
631.084792
 20
315.518598
 30
297.016541
  0
VERTEX
 70
   32
  8
REDGE
 10
645.932082
 20
321.808241
 30
298.483551
  0
VERTEX
 70
   32
  8
REDGE
 10
647.881293
 20
322.627388
 30
298.697296
  0
VERTEX
 70
   32
  8
REDGE
 10
655.690881
 20
327.524520
 30
299.557312
  0
VERTEX
 70
   32
  8
REDGE
 10
666.370873
 20
334.206924
 30
300.703522
  0
VERTEX
 70
   32
  8
REDGE
 10
669.494976
 20
336.155675
 30
301.053894
  0
VERTEX
 70
   32
  8
REDGE
 10
676.387456
 20
341.641263
 30
301.870728
  0
VERTEX
 70
   32
  8
REDGE
 10
685.948003
 20
349.232816
 30
302.981445
  0
VERTEX
 70
   32
  8
REDGE
 10
689.682378
 20
352.214872
 30
303.416260
  0
VERTEX
 70
   32
  8
REDGE
 10
694.828553
 20
356.214409
 30
303.949677
  0
VERTEX
 70
   32
  8
REDGE
 10
698.640080
 20
357.219716
 30
304.248688
  0
VERTEX
 70
   32
  8
REDGE
 10
702.083744
 20
358.003865
 30
304.570007
  0
VERTEX
 70
   32
  8
REDGE
 10
715.186283
 20
361.101613
 30
305.663300
  0
VERTEX
 70
   32
  8
REDGE
 10
731.649723
 20
364.993489
 30
307.037048
  0
VERTEX
 70
   32
  8
REDGE
 10
745.604171
 20
370.895259
 30
308.284637
  0
VERTEX
 70
   32
  8
REDGE
 10
750.741850
 20
374.767587
 30
308.824036
  0
VERTEX
 70
   32
  8
REDGE
 10
756.895459
 20
378.143733
 30
309.390167
  0
VERTEX
 70
   32
  8
REDGE
 10
759.314717
 20
379.374971
 30
309.713531
  0
VERTEX
 70
   32
  8
REDGE
 10
763.965800
 20
383.719096
 30
310.470032
  0
VERTEX
 70
   32
  8
REDGE
 10
764.313269
 20
384.280673
 30
312.630035
  0
VERTEX
 70
   32
  8
REDGE
 10
766.854739
 20
392.140981
 30
313.470032
  0
VERTEX
 70
   32
  8
REDGE
 10
765.518302
 20
399.417530
 30
315.768951
  0
VERTEX
 70
   32
  8
REDGE
 10
765.227164
 20
400.078755
 30
315.913361
  0
VERTEX
 70
   32
  8
REDGE
 10
765.035372
 20
400.592006
 30
316.070038
  0
VERTEX
 70
   32
  8
REDGE
 10
758.376321
 20
407.540616
 30
318.710052
  0
VERTEX
 70
   32
  8
REDGE
 10
748.887899
 20
409.536996
 30
320.510040
  0
VERTEX
 70
   32
  8
REDGE
 10
745.928925
 20
408.975004
 30
320.687775
  0
VERTEX
 70
   32
  8
REDGE
 10
736.494271
 20
408.437239
 30
321.030029
  0
VERTEX
 70
   32
  8
REDGE
 10
714.449067
 20
404.612757
 30
321.250031
  0
VERTEX
 70
   32
  8
REDGE
 10
697.437592
 20
399.450708
 30
321.430023
  0
VERTEX
 70
   32
  8
REDGE
 10
692.444955
 20
397.940032
 30
321.641998
  0
VERTEX
 70
   32
  8
REDGE
 10
688.184383
 20
396.160007
 30
321.830017
  0
VERTEX
 70
   32
  8
REDGE
 10
677.886043
 20
391.867344
 30
319.190002
  0
VERTEX
 70
   32
  8
REDGE
 10
663.842892
 20
386.013736
 30
323.989990
  0
SEQEND
  0
POLYLINE
  8
REDGE
 70
  136
 66
  1
  0
VERTEX
 70
   32
  8
REDGE
 10
668.616315
 20
186.386505
 30
240.500000
  0
VERTEX
 70
   32
  8
REDGE
 10
668.258771
 20
186.207107
 30
240.500000
  0
VERTEX
 70
   32
  8
REDGE
 10
633.578046
 20
168.190918
 30
244.714722
  0
VERTEX
 70
   32
  8
REDGE
 10
627.792646
 20
165.185623
 30
245.317856
  0
VERTEX
 70
   32
  8
REDGE
 10
627.649083
 20
165.105412
 30
245.349197
  0
VERTEX
 70
   32
  8
REDGE
 10
606.315023
 20
157.014500
 30
247.476181
  0
VERTEX
 70
   32
  8
REDGE
 10
601.536969
 20
154.972238
 30
247.934723
  0
VERTEX
 70
   32
  8
REDGE
 10
590.563574
 20
148.283539
 30
249.479935
  0
VERTEX
 70
   32
  8
REDGE
 10
577.911443
 20
135.433162
 30
251.653244
  0
VERTEX
 70
   32
  8
REDGE
 10
574.944520
 20
131.398030
 30
252.284821
  0
VERTEX
 70
   32
  8
REDGE
 10
573.405278
 20
129.304499
 30
252.659363
  0
VERTEX
 70
   32
  8
REDGE
 10
571.285500
 20
126.668417
 30
253.184998
  0
VERTEX
 70
   32
  8
REDGE
 10
556.129268
 20
116.063710
 30
256.080536
  0
VERTEX
 70
   32
  8
REDGE
 10
546.220524
 20
113.637509
 30
257.666870
  0
VERTEX
 70
   32
  8
REDGE
 10
537.818848
 20
113.629012
 30
258.886108
  0
VERTEX
 70
   32
  8
REDGE
 10
524.101632
 20
117.748745
 30
260.977295
  0
VERTEX
 70
   32
  8
REDGE
 10
516.455755
 20
122.923609
 30
262.321625
  0
VERTEX
 70
   32
  8
REDGE
 10
509.350683
 20
129.075640
 30
263.586853
  0
VERTEX
 70
   32
  8
REDGE
 10
505.368016
 20
132.524073
 30
264.401550
  0
VERTEX
 70
   32
  8
REDGE
 10
499.360243
 20
139.966677
 30
266.050415
  0
VERTEX
 70
   32
  8
REDGE
 10
496.396427
 20
148.571066
 30
267.626740
  0
VERTEX
 70
   32
  8
REDGE
 10
496.162384
 20
155.485336
 30
268.816956
  0
VERTEX
 70
   32
  8
REDGE
 10
496.262106
 20
156.376495
 30
268.996216
  0
VERTEX
 70
   32
  8
REDGE
 10
496.353322
 20
157.025701
 30
269.127441
  0
VERTEX
 70
   32
  8
REDGE
 10
497.907216
 20
167.164815
 30
270.973816
  0
VERTEX
 70
   32
  8
REDGE
 10
499.267781
 20
176.048116
 30
272.591461
  0
VERTEX
 70
   32
  8
REDGE
 10
499.322957
 20
176.407796
 30
272.656952
  0
VERTEX
 70
   32
  8
REDGE
 10
500.929158
 20
186.886404
 30
274.545837
  0
VERTEX
 70
   32
  8
REDGE
 10
501.882344
 20
193.105169
 30
275.666840
  0
VERTEX
 70
   32
  8
REDGE
 10
502.156390
 20
194.654271
 30
275.969360
  0
VERTEX
 70
   32
  8
REDGE
 10
504.367836
 20
201.893347
 30
277.427032
  0
VERTEX
 70
   32
  8
REDGE
 10
505.786299
 20
204.871738
 30
278.018646
  0
VERTEX
 70
   32
  8
REDGE
 10
508.345547
 20
209.004366
 30
278.889679
  0
VERTEX
 70
   32
  8
REDGE
 10
513.399111
 20
214.724944
 30
280.254944
  0
VERTEX
 70
   32
  8
REDGE
 10
520.405801
 20
219.799314
 30
281.802704
  0
VERTEX
 70
   32
  8
REDGE
 10
522.533912
 20
220.987378
 30
282.205322
  0
VERTEX
 70
   32
  8
REDGE
 10
528.608802
 20
224.383207
 30
283.355072
  0
VERTEX
 70
   32
  8
REDGE
 10
537.506439
 20
229.361654
 30
284.841980
  0
VERTEX
 70
   32
  8
REDGE
 10
552.220839
 20
240.030284
 30
287.513092
  0
VERTEX
 70
   32
  8
REDGE
 10
553.650100
 20
241.066218
 30
287.775055
  0
VERTEX
 70
   32
  8
REDGE
 10
560.932082
 20
246.353221
 30
288.815552
  0
VERTEX
 70
   32
  8
REDGE
 10
566.784438
 20
250.592204
 30
289.651123
  0
VERTEX
 70
   32
  8
REDGE
 10
575.385573
 20
256.835795
 30
290.880035
  0
VERTEX
 70
   32
  8
REDGE
 10
576.249799
 20
257.491746
 30
290.945038
  0
VERTEX
 70
   32
  8
REDGE
 10
581.488801
 20
263.758583
 30
291.657562
  0
VERTEX
 70
   32
  8
REDGE
 10
587.865815
 20
271.434120
 30
292.569824
  0
VERTEX
 70
   32
  8
REDGE
 10
594.836823
 20
279.824379
 30
293.567047
  0
VERTEX
 70
   32
  8
REDGE
 10
600.697297
 20
286.956428
 30
294.410889
  0
VERTEX
 70
   32
  8
REDGE
 10
604.557986
 20
291.567706
 30
294.998108
  0
VERTEX
 70
   32
  8
REDGE
 10
604.884598
 20
291.758635
 30
295.070007
  0
VERTEX
 70
   32
  8
REDGE
 10
610.842362
 20
295.868438
 30
295.452240
  0
VERTEX
 70
   32
  8
REDGE
 10
619.154862
 20
301.598906
 30
295.985443
  0
VERTEX
 70
   32
  8
REDGE
 10
627.817230
 20
307.592979
 30
296.557678
  0
VERTEX
 70
   32
  8
REDGE
 10
629.519029
 20
308.301287
 30
296.670959
  0
VERTEX
 70
   32
  8
REDGE
 10
630.547777
 20
308.739397
 30
296.730011
  0
VERTEX
 70
   32
  8
REDGE
 10
633.434618
 20
309.997881
 30
297.016541
  0
VERTEX
 70
   32
  8
REDGE
 10
648.281908
 20
316.287524
 30
298.483551
  0
VERTEX
 70
   32
  8
REDGE
 10
650.655939
 20
317.307487
 30
298.697296
  0
VERTEX
 70
   32
  8
REDGE
 10
658.873328
 20
322.438065
 30
299.557312
  0
VERTEX
 70
   32
  8
REDGE
 10
669.553321
 20
329.120469
 30
300.703522
  0
VERTEX
 70
   32
  8
REDGE
 10
672.958882
 20
331.256557
 30
301.053894
  0
VERTEX
 70
   32
  8
REDGE
 10
680.121822
 20
336.945040
 30
301.870728
  0
VERTEX
 70
   32
  8
REDGE
 10
689.682369
 20
344.536593
 30
302.981445
  0
VERTEX
 70
   32
  8
REDGE
 10
693.416744
 20
347.518649
 30
303.416260
  0
VERTEX
 70
   32
  8
REDGE
 10
697.449035
 20
350.816902
 30
303.949677
  0
VERTEX
 70
   32
  8
REDGE
 10
700.020565
 20
351.380687
 30
304.248688
  0
VERTEX
 70
   32
  8
REDGE
 10
703.464229
 20
352.164836
 30
304.570007
  0
VERTEX
 70
   32
  8
REDGE
 10
716.566768
 20
355.262584
 30
305.663300
  0
VERTEX
 70
   32
  8
REDGE
 10
733.030208
 20
359.154460
 30
307.037048
  0
VERTEX
 70
   32
  8
REDGE
 10
748.203422
 20
362.751350
 30
308.284637
  0
VERTEX
 70
   32
  8
REDGE
 10
754.574629
 20
365.328918
 30
308.824036
  0
VERTEX
 70
   32
  8
REDGE
 10
761.034038
 20
367.951963
 30
309.390167
  0
VERTEX
 70
   32
  8
REDGE
 10
765.006119
 20
369.961791
 30
309.713531
  0
VERTEX
 70
   32
  8
REDGE
 10
772.632004
 20
376.944370
 30
310.470032
  0
VERTEX
 70
   32
  8
REDGE
 10
773.438959
 20
378.138866
 30
312.630035
  0
VERTEX
 70
   32
  8
REDGE
 10
777.846259
 20
391.709126
 30
313.470032
  0
VERTEX
 70
   32
  8
REDGE
 10
775.585422
 20
403.850712
 30
315.768951
  0
VERTEX
 70
   32
  8
REDGE
 10
775.294284
 20
404.511937
 30
315.913361
  0
VERTEX
 70
   32
  8
REDGE
 10
774.922336
 20
405.413618
 30
316.070038
  0
VERTEX
 70
   32
  8
REDGE
 10
763.856377
 20
417.078382
 30
318.710052
  0
VERTEX
 70
   32
  8
REDGE
 10
748.074150
 20
420.506855
 30
320.510040
  0
VERTEX
 70
   32
  8
REDGE
 10
742.745994
 20
419.466465
 30
320.687775
  0
VERTEX
 70
   32
  8
REDGE
 10
733.941863
 20
416.850470
 30
321.030029
  0
VERTEX
 70
   32
  8
REDGE
 10
712.707183
 20
410.354345
 30
321.250031
  0
VERTEX
 70
   32
  8
REDGE
 10
695.695708
 20
405.192297
 30
321.430023
  0
VERTEX
 70
   32
  8
REDGE
 10
690.417228
 20
403.587007
 30
321.641998
  0
VERTEX
 70
   32
  8
REDGE
 10
685.875919
 20
401.698147
 30
321.830017
  0
VERTEX
 70
   32
  8
REDGE
 10
675.577580
 20
397.405484
 30
319.190002
  0
VERTEX
 70
   32
  8
REDGE
 10
661.534428
 20
391.551876
 30
323.989990
  0
SEQEND
  0
POLYLINE
  8
ROW
 70
  136
 66
  1
  0
VERTEX
 70
   32
  8
ROW
 10
676.912198
 20
170.412202
 30
239.808825
  0
VERTEX
 70
   32
  8
ROW
 10
676.554654
 20
170.232805
 30
239.808825
  0
VERTEX
 70
   32
  8
ROW
 10
641.873929
 20
152.216615
 30
242.208298
  0
VERTEX
 70
   32
  8
ROW
 10
636.088529
 20
149.211320
 30
242.856638
  0
VERTEX
 70
   32
  8
ROW
 10
635.002752
 20
148.676063
 30
242.863650
  0
VERTEX
 70
   32
  8
ROW
 10
612.701621
 20
140.185615
 30
243.793110
  0
VERTEX
 70
   32
  8
ROW
 10
609.254972
 20
138.710860
 30
243.969953
  0
VERTEX
 70
   32
  8
ROW
 10
601.453368
 20
133.951324
 30
244.127042
  0
VERTEX
 70
   32
  8
ROW
 10
592.413364
 20
124.770410
 30
248.797814
  0
VERTEX
 70
   32
  8
ROW
 10
589.446469
 20
120.735315
 30
249.802376
  0
VERTEX
 70
   32
  8
ROW
 10
587.907202
 20
118.641750
 30
250.323525
  0
VERTEX
 70
   32
  8
ROW
 10
584.798450
 20
114.777236
 30
251.091286
  0
VERTEX
 70
   32
  8
ROW
 10
562.775290
 20
99.335578
 30
254.107148
  0
VERTEX
 70
   32
  8
ROW
 10
548.376748
 20
95.767123
 30
256.185276
  0
VERTEX
 70
   32
  8
ROW
 10
536.150757
 20
95.706471
 30
257.503496
  0
VERTEX
 70
   32
  8
ROW
 10
515.956317
 20
101.697146
 30
257.923045
  0
VERTEX
 70
   32
  8
ROW
 10
504.673253
 20
109.315793
 30
258.257648
  0
VERTEX
 70
   32
  8
ROW
 10
497.568179
 20
115.467826
 30
259.520143
  0
VERTEX
 70
   32
  8
ROW
 10
493.585518
 20
118.916254
 30
259.820815
  0
VERTEX
 70
   32
  8
ROW
 10
483.635796
 20
131.206440
 30
260.744552
  0
VERTEX
 70
   32
  8
ROW
 10
478.622176
 20
145.729233
 30
262.694311
  0
VERTEX
 70
   32
  8
ROW
 10
478.242768
 20
157.184555
 30
266.564882
  0
VERTEX
 70
   32
  8
ROW
 10
478.408464
 20
158.667236
 30
266.992501
  0
VERTEX
 70
   32
  8
ROW
 10
478.561029
 20
159.752295
 30
267.244794
  0
VERTEX
 70
   32
  8
ROW
 10
480.114923
 20
169.891407
 30
271.340027
  0
VERTEX
 70
   32
  8
ROW
 10
481.475488
 20
178.774708
 30
274.940033
  0
VERTEX
 70
   32
  8
ROW
 10
481.530664
 20
179.134388
 30
275.033630
  0
VERTEX
 70
   32
  8
ROW
 10
483.136865
 20
189.612995
 30
282.501515
  0
VERTEX
 70
   32
  8
ROW
 10
484.090050
 20
195.831759
 30
284.737568
  0
VERTEX
 70
   32
  8
ROW
 10
484.492464
 20
198.116310
 30
284.930122
  0
VERTEX
 70
   32
  8
ROW
 10
478.807934
 20
212.485222
 30
290.032701
  0
VERTEX
 70
   32
  8
ROW
 10
483.893261
 20
216.455120
 30
288.702535
  0
VERTEX
 70
   32
  8
ROW
 10
493.724229
 20
219.502797
 30
285.860548
  0
VERTEX
 70
   32
  8
ROW
 10
501.232837
 20
227.990757
 30
289.161499
  0
VERTEX
 70
   32
  8
ROW
 10
511.624928
 20
235.512247
 30
288.344798
  0
VERTEX
 70
   32
  8
ROW
 10
513.753046
 20
236.700315
 30
288.390960
  0
VERTEX
 70
   32
  8
ROW
 10
519.827936
 20
240.096143
 30
289.894716
  0
VERTEX
 70
   32
  8
ROW
 10
527.814118
 20
244.529346
 30
291.308355
  0
VERTEX
 70
   32
  8
ROW
 10
541.650808
 20
254.599925
 30
294.290696
  0
VERTEX
 70
   32
  8
ROW
 10
543.080069
 20
255.635859
 30
293.878292
  0
VERTEX
 70
   32
  8
ROW
 10
550.362051
 20
260.922862
 30
290.355506
  0
VERTEX
 70
   32
  8
ROW
 10
556.214407
 20
265.161845
 30
293.274117
  0
VERTEX
 70
   32
  8
ROW
 10
564.815542
 20
271.405436
 30
295.173468
  0
VERTEX
 70
   32
  8
ROW
 10
563.946683
 20
270.630747
 30
295.354457
  0
VERTEX
 70
   32
  8
ROW
 10
567.644374
 20
275.262140
 30
297.823251
  0
VERTEX
 70
   32
  8
ROW
 10
574.021388
 20
282.937678
 30
298.112968
  0
VERTEX
 70
   32
  8
ROW
 10
580.992397
 20
291.327936
 30
300.134660
  0
VERTEX
 70
   32
  8
ROW
 10
586.852870
 20
298.459986
 30
303.933382
  0
VERTEX
 70
   32
  8
ROW
 10
592.412585
 20
304.852632
 30
305.427720
  0
VERTEX
 70
   32
  8
ROW
 10
594.665386
 20
306.576452
 30
305.518888
  0
VERTEX
 70
   32
  8
ROW
 10
600.623150
 20
310.686254
 30
305.180918
  0
VERTEX
 70
   32
  8
ROW
 10
608.935650
 20
316.416723
 30
305.918163
  0
VERTEX
 70
   32
  8
ROW
 10
619.138948
 20
323.362804
 30
301.716307
  0
VERTEX
 70
   32
  8
ROW
 10
622.469551
 20
324.863438
 30
300.565799
  0
VERTEX
 70
   32
  8
ROW
 10
623.498299
 20
325.301549
 30
301.703718
  0
VERTEX
 70
   32
  8
ROW
 10
626.385140
 20
326.560033
 30
302.195920
  0
VERTEX
 70
   32
  8
ROW
 10
641.232430
 20
332.849675
 30
303.445683
  0
VERTEX
 70
   32
  8
ROW
 10
642.332002
 20
333.267189
 30
303.697893
  0
VERTEX
 70
   32
  8
ROW
 10
648.564970
 20
338.913750
 30
306.383747
  0
VERTEX
 70
   32
  8
ROW
 10
660.005979
 20
344.379835
 30
307.583578
  0
VERTEX
 70
   32
  8
ROW
 10
662.567163
 20
345.953910
 30
307.665681
  0
VERTEX
 70
   32
  8
ROW
 10
668.918724
 20
351.033710
 30
308.948833
  0
VERTEX
 70
   32
  8
ROW
 10
678.479271
 20
358.625263
 30
304.648848
  0
VERTEX
 70
   32
  8
ROW
 10
682.213646
 20
361.607318
 30
307.661128
  0
VERTEX
 70
   32
  8
ROW
 10
689.587589
 20
367.009421
 30
310.309963
  0
VERTEX
 70
   32
  8
ROW
 10
695.879109
 20
368.897774
 30
310.942353
  0
VERTEX
 70
   32
  8
ROW
 10
699.322774
 20
369.681924
 30
311.254275
  0
VERTEX
 70
   32
  8
ROW
 10
712.425313
 20
372.779671
 30
311.693630
  0
VERTEX
 70
   32
  8
ROW
 10
728.888753
 20
376.671548
 30
314.624537
  0
VERTEX
 70
   32
  8
ROW
 10
742.730449
 20
379.899136
 30
315.455104
  0
VERTEX
 70
   32
  8
ROW
 10
747.802390
 20
382.006351
 30
316.068295
  0
VERTEX
 70
   32
  8
ROW
 10
754.261818
 20
384.629405
 30
315.765766
  0
VERTEX
 70
   32
  8
ROW
 10
755.692915
 20
385.365176
 30
315.682400
  0
VERTEX
 70
   32
  8
ROW
 10
758.450943
 20
388.030285
 30
316.468752
  0
VERTEX
 70
   32
  8
ROW
 10
758.506012
 20
388.189095
 30
316.892773
  0
VERTEX
 70
   32
  8
ROW
 10
759.860136
 20
392.415798
 30
317.732163
  0
VERTEX
 70
   32
  8
ROW
 10
759.111953
 20
396.596415
 30
315.030562
  0
VERTEX
 70
   32
  8
ROW
 10
758.820815
 20
397.257639
 30
315.173857
  0
VERTEX
 70
   32
  8
ROW
 10
758.743667
 20
397.523708
 30
315.361695
  0
VERTEX
 70
   32
  8
ROW
 10
754.889012
 20
401.471129
 30
316.454585
  0
VERTEX
 70
   32
  8
ROW
 10
749.405739
 20
402.556177
 30
319.071545
  0
VERTEX
 70
   32
  8
ROW
 10
747.971691
 20
402.241712
 30
319.234881
  0
VERTEX
 70
   32
  8
ROW
 10
739.167515
 20
399.625704
 30
319.253498
  0
VERTEX
 70
   32
  8
ROW
 10
717.932835
 20
393.129580
 30
319.464262
  0
VERTEX
 70
   32
  8
ROW
 10
700.921361
 20
387.967532
 30
319.272068
  0
VERTEX
 70
   32
  8
ROW
 10
696.500409
 20
386.646083
 30
319.408356
  0
VERTEX
 70
   32
  8
ROW
 10
692.801311
 20
385.083727
 30
319.423828
  0
VERTEX
 70
   32
  8
ROW
 10
682.502971
 20
380.791063
 30
316.317306
  0
VERTEX
 70
   32
  8
ROW
 10
668.459819
 20
374.937456
 30
320.481152
  0
SEQEND
  0
POLYLINE
  8
ROW
 70
  136
 66
  1
  0
VERTEX
 70
   32
  8
ROW
 10
663.085726
 20
197.036040
 30
241.308781
  0
VERTEX
 70
   32
  8
ROW
 10
662.728183
 20
196.856642
 30
241.308781
  0
VERTEX
 70
   32
  8
ROW
 10
628.047457
 20
178.840453
 30
248.214930
  0
VERTEX
 70
   32
  8
ROW
 10
622.262057
 20
175.835158
 30
248.847478
  0
VERTEX
 70
   32
  8
ROW
 10
622.746638
 20
176.058312
 30
248.852692
  0
VERTEX
 70
   32
  8
ROW
 10
602.057290
 20
168.233757
 30
249.799759
  0
VERTEX
 70
   32
  8
ROW
 10
596.391634
 20
165.813157
 30
249.940441
  0
VERTEX
 70
   32
  8
ROW
 10
583.303712
 20
157.838349
 30
249.884989
  0
VERTEX
 70
   32
  8
ROW
 10
568.243496
 20
142.541663
 30
254.082912
  0
VERTEX
 70
   32
  8
ROW
 10
565.276554
 20
138.506506
 30
255.091741
  0
VERTEX
 70
   32
  8
ROW
 10
563.737329
 20
136.412998
 30
255.615093
  0
VERTEX
 70
   32
  8
ROW
 10
562.276867
 20
134.595871
 30
256.393541
  0
VERTEX
 70
   32
  8
ROW
 10
551.698587
 20
127.215798
 30
258.607139
  0
VERTEX
 70
   32
  8
ROW
 10
544.783042
 20
125.551099
 30
261.310827
  0
VERTEX
 70
   32
  8
ROW
 10
538.930908
 20
125.577373
 30
262.832065
  0
VERTEX
 70
   32
  8
ROW
 10
529.531842
 20
128.449812
 30
264.768756
  0
VERTEX
 70
   32
  8
ROW
 10
524.310755
 20
131.995486
 30
265.030196
  0
VERTEX
 70
   32
  8
ROW
 10
517.205686
 20
138.147516
 30
265.548415
  0
VERTEX
 70
   32
  8
ROW
 10
513.223015
 20
141.595953
 30
265.838863
  0
VERTEX
 70
   32
  8
ROW
 10
509.843208
 20
145.806835
 30
266.923745
  0
VERTEX
 70
   32
  8
ROW
 10
508.245927
 20
150.465622
 30
269.029862
  0
VERTEX
 70
   32
  8
ROW
 10
508.108795
 20
154.352524
 30
269.627213
  0
VERTEX
 70
   32
  8
ROW
 10
508.164534
 20
154.849335
 30
270.052505
  0
VERTEX
 70
   32
  8
ROW
 10
508.214850
 20
155.207971
 30
270.287561
  0
VERTEX
 70
   32
  8
ROW
 10
509.768744
 20
165.347088
 30
270.610423
  0
VERTEX
 70
   32
  8
ROW
 10
511.129309
 20
174.230388
 30
273.483741
  0
VERTEX
 70
   32
  8
ROW
 10
511.184485
 20
174.590069
 30
273.578384
  0
VERTEX
 70
   32
  8
ROW
 10
512.790686
 20
185.068676
 30
273.508224
  0
VERTEX
 70
   32
  8
ROW
 10
513.743873
 20
191.287443
 30
274.284195
  0
VERTEX
 70
   32
  8
ROW
 10
513.932340
 20
192.346245
 30
274.460676
  0
VERTEX
 70
   32
  8
ROW
 10
515.453682
 20
197.299437
 30
274.754369
  0
VERTEX
 70
   32
  8
ROW
 10
516.393166
 20
199.259754
 30
274.643766
  0
VERTEX
 70
   32
  8
ROW
 10
518.093092
 20
202.005412
 30
276.581626
  0
VERTEX
 70
   32
  8
ROW
 10
521.509960
 20
205.881069
 30
275.781710
  0
VERTEX
 70
   32
  8
ROW
 10
526.259716
 20
209.324026
 30
278.722367
  0
VERTEX
 70
   32
  8
ROW
 10
528.387824
 20
210.512088
 30
278.772604
  0
VERTEX
 70
   32
  8
ROW
 10
534.462714
 20
213.907916
 30
280.242231
  0
VERTEX
 70
   32
  8
ROW
 10
543.967986
 20
219.249859
 30
281.579141
  0
VERTEX
 70
   32
  8
ROW
 10
559.267527
 20
230.317189
 30
281.505070
  0
VERTEX
 70
   32
  8
ROW
 10
560.696787
 20
231.353124
 30
281.115372
  0
VERTEX
 70
   32
  8
ROW
 10
570.894159
 20
232.621577
 30
278.135079
  0
VERTEX
 70
   32
  8
ROW
 10
573.831125
 20
240.879110
 30
282.794147
  0
VERTEX
 70
   32
  8
ROW
 10
582.432261
 20
247.122701
 30
285.398129
  0
VERTEX
 70
   32
  8
ROW
 10
584.451876
 20
248.732413
 30
285.566832
  0
VERTEX
 70
   32
  8
ROW
 10
590.718419
 20
256.089544
 30
288.158804
  0
VERTEX
 70
   32
  8
ROW
 10
597.095433
 20
263.765081
 30
288.936234
  0
VERTEX
 70
   32
  8
ROW
 10
607.497033
 20
269.304806
 30
283.122203
  0
VERTEX
 70
   32
  8
ROW
 10
609.926915
 20
279.287390
 30
288.768899
  0
VERTEX
 70
   32
  8
ROW
 10
612.654920
 20
282.711089
 30
289.926229
  0
VERTEX
 70
   32
  8
ROW
 10
611.697407
 20
281.880091
 30
289.969860
  0
VERTEX
 70
   32
  8
ROW
 10
617.655170
 20
285.989893
 30
291.803717
  0
VERTEX
 70
   32
  8
ROW
 10
625.967670
 20
291.720362
 30
291.211857
  0
VERTEX
 70
   32
  8
ROW
 10
637.383041
 20
290.210371
 30
283.859942
  0
VERTEX
 70
   32
  8
ROW
 10
638.728545
 20
286.664308
 30
281.532204
  0
VERTEX
 70
   32
  8
ROW
 10
638.168131
 20
290.836020
 30
284.297761
  0
VERTEX
 70
   32
  8
ROW
 10
638.134269
 20
298.956447
 30
290.240559
  0
VERTEX
 70
   32
  8
ROW
 10
652.981559
 20
305.246089
 30
292.157975
  0
VERTEX
 70
   32
  8
ROW
 10
656.205230
 20
306.667686
 30
292.354798
  0
VERTEX
 70
   32
  8
ROW
 10
665.238223
 20
312.265154
 30
292.171559
  0
VERTEX
 70
   32
  8
ROW
 10
675.918216
 20
318.947558
 30
297.098404
  0
VERTEX
 70
   32
  8
ROW
 10
679.886694
 20
321.458321
 30
297.036093
  0
VERTEX
 70
   32
  8
ROW
 10
687.590554
 20
327.552594
 30
295.920771
  0
VERTEX
 70
   32
  8
ROW
 10
697.151100
 20
335.144146
 30
292.723477
  0
VERTEX
 70
   32
  8
ROW
 10
700.885475
 20
338.126202
 30
292.405087
  0
VERTEX
 70
   32
  8
ROW
 10
702.689999
 20
340.021890
 30
295.635159
  0
VERTEX
 70
   32
  8
ROW
 10
702.781535
 20
339.702628
 30
296.042518
  0
VERTEX
 70
   32
  8
ROW
 10
706.225200
 20
340.486778
 30
296.459111
  0
VERTEX
 70
   32
  8
ROW
 10
719.327739
 20
343.584525
 30
299.443318
  0
VERTEX
 70
   32
  8
ROW
 10
735.791179
 20
347.476402
 30
302.208809
  0
VERTEX
 70
   32
  8
ROW
 10
751.852071
 20
351.319492
 30
302.679485
  0
VERTEX
 70
   32
  8
ROW
 10
759.089456
 20
354.210629
 30
303.501181
  0
VERTEX
 70
   32
  8
ROW
 10
765.548851
 20
356.833669
 30
304.570662
  0
VERTEX
 70
   32
  8
ROW
 10
771.214922
 20
359.692868
 30
304.507817
  0
VERTEX
 70
   32
  8
ROW
 10
782.086045
 20
369.553760
 30
306.087673
  0
VERTEX
 70
   32
  8
ROW
 10
783.394256
 20
371.438712
 30
306.170465
  0
VERTEX
 70
   32
  8
ROW
 10
789.837008
 20
391.238011
 30
310.896235
  0
VERTEX
 70
   32
  8
ROW
 10
786.567735
 20
408.686911
 30
315.768951
  0
VERTEX
 70
   32
  8
ROW
 10
786.276597
 20
409.348135
 30
315.913361
  0
VERTEX
 70
   32
  8
ROW
 10
785.708115
 20
410.673557
 30
316.070038
  0
VERTEX
 70
   32
  8
ROW
 10
769.834621
 20
427.483217
 30
324.519270
  0
VERTEX
 70
   32
  8
ROW
 10
747.186424
 20
432.473974
 30
330.194553
  0
VERTEX
 70
   32
  8
ROW
 10
739.262196
 20
430.949633
 30
330.249924
  0
VERTEX
 70
   32
  8
ROW
 10
730.458095
 20
428.333646
 30
331.301383
  0
VERTEX
 70
   32
  8
ROW
 10
709.223415
 20
421.837522
 30
330.382479
  0
VERTEX
 70
   32
  8
ROW
 10
690.860423
 20
421.130337
 30
330.502891
  0
VERTEX
 70
   32
  8
ROW
 10
686.003246
 20
415.879411
 30
328.215257
  0
VERTEX
 70
   32
  8
ROW
 10
681.130018
 20
413.083842
 30
327.914973
  0
VERTEX
 70
   32
  8
ROW
 10
670.960652
 20
408.481764
 30
322.807335
  0
VERTEX
 70
   32
  8
ROW
 10
656.917500
 20
402.628157
 30
327.875513
  0
SEQEND
  0
ENDSEC
  0
EOF
