  0
SECTION
  2
HEADER
  9
$HANDLING
 70
0
  0
ENDSEC
  0
SECTION
  2
TABLES
  0
TABLE
  2
LTYPE
 70
8
  0
LTYPE
  2
CONTINUOUS
 70
64
  3
Solid line
 72
65
 73
0
 40
0.000000
  0
LTYPE
  2
DASHED
 70
64
  3
__ __ __ __
 72
65
 73
2
 40
18.750000
 49
12.500000
 49
-6.250000
  0
LTYPE
  2
HIDDEN
 70
64
  3
_ _ _ _ _ _
 72
65
 73
2
 40
9.375000
 49
6.250000
 49
-3.125000
  0
LTYPE
  2
DASHDOT
 70
64
  3
__.__.__.__
 72
65
 73
4
 40
25.000000
 49
12.500000
 49
-6.250000
 49
0.000000
 49
-6.250000
  0
ENDTAB
  0
TABLE
  2
LAYER
 70
1
  0
LAYER
  2
Layer0
 70
0
 62
8
  6
CONTINUOUS
  0
ENDTAB
  0
TABLE
  2
APPID
 70
1
  0
APPID
  2
smartdraw
 70
0
  0
ENDTAB
  0
TABLE
  2
UCS
 70
1
  0
UCS
  2
UCSENTRY1
 70
0
 10
0.000000
 20
0.000000
 11
1.000000
 21
0.000000
 12
0.000000
 22
1.000000
  0
ENDTAB
  0
ENDSEC
  0
SECTION
  2
BLOCKS
  0
BLOCK
 70
0
  2
none
 10
0
 20
0
  0
ENDBLK
  0
BLOCK
  8
Layer0
 70
0
  2
groupobj_0
 10
20.752977
 20
151.937958
  0
ARC
 10
47.546711
 20
221.632187
  8
Layer0
 40
12.385648
 50
120.864414
 51
189.494476
  0
ARC
 10
37.371948
 20
189.649811
  8
Layer0
 40
16.297916
 50
209.100317
 51
277.325410
  0
ARC
 10
37.068218
 20
188.055542
  8
Layer0
 40
13.670667
 50
205.367170
 51
280.033608
  0
ARC
 10
40.866264
 20
191.782516
  8
Layer0
 40
20.114037
 50
108.336160
 51
210.006677
  0
ARC
 10
26.476048
 20
224.985153
  8
Layer0
 40
16.702160
 50
305.280552
 51
27.049808
  0
ARC
 10
40.560757
 20
189.110596
  8
Layer0
 40
17.206373
 50
106.041624
 51
204.261828
  0
ARC
 10
37.511086
 20
184.685745
  8
Layer0
 40
10.542014
 50
286.805523
 51
27.091821
  0
ARC
 10
38.348534
 20
185.302475
  8
Layer0
 40
12.013039
 50
274.502372
 51
29.563327
  0
ARC
 10
40.201797
 20
185.120041
  8
Layer0
 40
8.083385
 50
31.593529
 51
208.719740
  0
ARC
 10
41.011879
 20
186.275208
  8
Layer0
 40
9.499102
 50
31.480928
 51
211.481016
  0
LINE
 10
42.460239
 20
160.810242
  8
Layer0
 11
35.013855
 21
219.906036
  0
ARC
 10
23.957170
 20
223.362686
  8
Layer0
 40
21.727484
 50
306.092491
 51
36.816961
  0
ARC
 10
48.687477
 20
222.721191
  8
Layer0
 40
15.359696
 50
117.193797
 51
190.560962
  0
LINE
 10
33.748047
 20
220.191467
  8
Layer0
 11
40.717468
 21
163.503601
  0
ARC
 10
34.674610
 20
160.456421
  8
Layer0
 40
6.775727
 50
191.828820
 51
23.763028
  0
ARC
 10
33.904819
 20
160.810242
  8
Layer0
 40
8.873702
 50
178.976883
 51
358.976888
  0
ARC
 10
-1265.099121
 20
1491.203613
  8
Layer0
 40
1850.010498
 50
314.866315
 51
315.657194
  0
CIRCLE
 10
29.186535
 20
163.366013
  8
Layer0
 40
4.472136
  0
ENDBLK
  0
ENDSEC
  0
SECTION
  2
ENTITIES
  0
INSERT
  8
Layer0
  2
groupobj_0
 10
20.752977
 20
151.937958
  0
ENDSEC
  0
EOF
