  0
SECTION
  2
HEADER
  9
$HANDLING
 70
0
  0
ENDSEC
  0
SECTION
  2
TABLES
  0
TABLE
  2
LTYPE
 70
8
  0
LTYPE
  2
CONTINUOUS
 70
64
  3
Solid line
 72
65
 73
0
 40
0.000000
  0
LTYPE
  2
DASHED
 70
64
  3
__ __ __ __
 72
65
 73
2
 40
18.750000
 49
12.500000
 49
-6.250000
  0
LTYPE
  2
HIDDEN
 70
64
  3
_ _ _ _ _ _
 72
65
 73
2
 40
9.375000
 49
6.250000
 49
-3.125000
  0
LTYPE
  2
DASHDOT
 70
64
  3
__.__.__.__
 72
65
 73
4
 40
25.000000
 49
12.500000
 49
-6.250000
 49
0.000000
 49
-6.250000
  0
ENDTAB
  0
TABLE
  2
LAYER
 70
1
  0
LAYER
  2
Layer0
 70
0
 62
8
  6
CONTINUOUS
  0
ENDTAB
  0
TABLE
  2
APPID
 70
1
  0
APPID
  2
smartdraw
 70
0
  0
ENDTAB
  0
TABLE
  2
UCS
 70
1
  0
UCS
  2
UCSENTRY1
 70
0
 10
0.000000
 20
0.000000
 11
1.000000
 21
0.000000
 12
0.000000
 22
1.000000
  0
ENDTAB
  0
ENDSEC
  0
SECTION
  2
BLOCKS
  0
BLOCK
 70
0
  2
none
 10
0
 20
0
  0
ENDBLK
  0
ENDSEC
  0
SECTION
  2
ENTITIES
  0
CIRCLE
 10
83.008049
 20
69.667480
  8
Layer0
 40
6.828907
  0
LINE
 10
42.562801
 20
38.962967
  8
Layer0
 11
51.456520
 21
55.268112
  0
LINE
 10
36.633656
 20
56.750412
  8
Layer0
 11
51.456520
 21
55.268112
  0
LINE
 10
76.867149
 20
50.821274
  8
Layer0
 11
71.361511
 21
68.396942
  0
LINE
 10
47.856682
 20
86.607895
  8
Layer0
 11
52.091785
 21
69.879227
  0
LINE
 10
70.938004
 20
68.396942
  8
Layer0
 11
51.668278
 21
69.667480
  0
LINE
 10
83.008049
 20
51.244766
  8
Layer0
 11
73.267311
 21
47.009659
  0
LINE
 10
67.126411
 20
60.985504
  8
Layer0
 11
73.267311
 21
46.797913
  0
LINE
 10
77.290657
 20
51.244766
  8
Layer0
 11
83.431557
 21
51.456512
  0
LINE
 10
45.739128
 20
63.314819
  8
Layer0
 11
67.549919
 21
60.985504
  0
LINE
 10
16.728662
 20
74.537842
  8
Layer0
 11
25.198872
 21
68.396942
  0
LINE
 10
22.446054
 20
63.314819
  8
Layer0
 11
25.410627
 21
68.608704
  0
LINE
 10
16.516909
 20
74.537842
  8
Layer0
 11
18.210949
 21
89.995972
  0
LINE
 10
58.020935
 20
84.490341
  8
Layer0
 11
40.445248
 21
96.560394
  0
LINE
 10
66.491142
 20
92.113525
  8
Layer0
 11
57.173912
 21
84.278580
  0
LINE
 10
73.055557
 20
93.807571
  8
Layer0
 11
66.279388
 21
92.113525
  0
LINE
 10
77.714172
 20
90.631241
  8
Layer0
 11
73.055557
 21
94.019333
  0
LINE
 10
74.114334
 20
87.666672
  8
Layer0
 11
77.925926
 21
90.419479
  0
LINE
 10
69.455719
 20
89.995972
  8
Layer0
 11
74.537842
 21
87.454910
  0
LINE
 10
58.656200
 20
78.137680
  8
Layer0
 11
69.455719
 21
89.995972
  0
LINE
 10
47.221416
 20
86.607895
  8
Layer0
 11
58.656200
 21
77.925934
  0
LINE
 10
64.585342
 20
58.232697
  8
Layer0
 11
46.162640
 21
63.103058
  0
LINE
 10
48.703705
 20
40.021744
  8
Layer0
 11
64.585342
 21
58.232697
  0
LINE
 10
54.209339
 20
35.998398
  8
Layer0
 11
48.915459
 21
39.598236
  0
LINE
 10
43.198067
 20
38.962967
  8
Layer0
 11
54.209339
 21
35.574875
  0
LINE
 10
34.304348
 20
66.702896
  8
Layer0
 11
36.210144
 21
56.538651
  0
LINE
 10
25.622383
 20
86.607895
  8
Layer0
 11
34.304348
 21
66.914658
  0
LINE
 10
23.081320
 20
78.137680
  8
Layer0
 11
25.834139
 21
86.819641
  0
LINE
 10
30.704508
 20
67.126404
  8
Layer0
 11
23.293076
 21
78.137680
  0
LINE
 10
26.681160
 20
62.891312
  8
Layer0
 11
30.280998
 21
67.338165
  0
LINE
 10
22.446054
 20
63.103058
  8
Layer0
 11
26.257648
 21
62.891312
  0
LINE
 10
21.810789
 20
94.442841
  8
Layer0
 11
17.999195
 21
89.784225
  0
LINE
 10
40.445248
 20
96.560394
  8
Layer0
 11
21.599033
 21
94.654587
  0
LINE
 10
40.233494
 20
96.983902
  8
Layer0
 11
40.021740
 21
96.983902
  0
POINT
 10
21.810789
 20
94.654587
  8
Layer0

  0
CIRCLE
 10
34.727859
 20
108.206940
  8
Layer0
 40
8.472854
  0
ENDSEC
  0
EOF
