  0
SECTION
  2
HEADER
  9
$HANDLING
 70
0
  0
ENDSEC
  0
SECTION
  2
TABLES
  0
TABLE
  2
LTYPE
 70
8
  0
LTYPE
  2
CONTINUOUS
 70
64
  3
Solid line
 72
65
 73
0
 40
0.000000
  0
LTYPE
  2
DASHED
 70
64
  3
__ __ __ __
 72
65
 73
2
 40
18.750000
 49
12.500000
 49
-6.250000
  0
LTYPE
  2
HIDDEN
 70
64
  3
_ _ _ _ _ _
 72
65
 73
2
 40
9.375000
 49
6.250000
 49
-3.125000
  0
LTYPE
  2
DASHDOT
 70
64
  3
__.__.__.__
 72
65
 73
4
 40
25.000000
 49
12.500000
 49
-6.250000
 49
0.000000
 49
-6.250000
  0
ENDTAB
  0
TABLE
  2
LAYER
 70
1
  0
LAYER
  2
Layer0
 70
0
 62
8
  6
CONTINUOUS
  0
ENDTAB
  0
TABLE
  2
APPID
 70
1
  0
APPID
  2
smartdraw
 70
0
  0
ENDTAB
  0
TABLE
  2
UCS
 70
1
  0
UCS
  2
UCSENTRY1
 70
0
 10
0.000000
 20
0.000000
 11
1.000000
 21
0.000000
 12
0.000000
 22
1.000000
  0
ENDTAB
  0
ENDSEC
  0
SECTION
  2
BLOCKS
  0
BLOCK
 70
0
  2
none
 10
0
 20
0
  0
ENDBLK
  0
BLOCK
  8
Layer0
 70
0
  2
groupobj_0
 10
24.000000
 20
188.000000
  0
POLYLINE
  8
Layer0
 62
8
 66
1
 70
1
  0
VERTEX
  8
Layer0
 62
8
 10
60.000000
 20
192.000000
  0
VERTEX
  8
Layer0
 62
8
 10
60.000000
 20
214.000000
  0
VERTEX
  8
Layer0
 62
8
 10
84.000000
 20
214.000000
  0
VERTEX
  8
Layer0
 62
8
 10
84.000000
 20
192.000000
  0
VERTEX
  8
Layer0
 62
8
 10
60.000000
 20
192.000000
  0
SEQEND
  0
POLYLINE
  8
Layer0
 62
8
 66
1
 70
1
  0
VERTEX
  8
Layer0
 62
8
 10
32.000000
 20
192.000000
  0
VERTEX
  8
Layer0
 62
8
 10
32.000000
 20
214.000000
  0
VERTEX
  8
Layer0
 62
8
 10
56.000000
 20
214.000000
  0
VERTEX
  8
Layer0
 62
8
 10
56.000000
 20
192.000000
  0
VERTEX
  8
Layer0
 62
8
 10
32.000000
 20
192.000000
  0
SEQEND
  0
CIRCLE
 10
72.000000
 20
204.000000
  8
Layer0
 40
2.000000
  0
CIRCLE
 10
44.000000
 20
204.000000
  8
Layer0
 40
2.000000
  0
CIRCLE
 10
28.000000
 20
212.000000
  8
Layer0
 40
2.828427
  0
LINE
 10
28.000000
 20
212.000000
  8
Layer0
 11
36.000000
 21
206.000000
  0
POLYLINE
  8
Layer0
 62
8
 66
1
 70
1
  0
VERTEX
  8
Layer0
 62
8
 10
24.000000
 20
188.000000
  0
VERTEX
  8
Layer0
 62
8
 10
24.000000
 20
218.000000
  0
VERTEX
  8
Layer0
 62
8
 10
92.000000
 20
218.000000
  0
VERTEX
  8
Layer0
 62
8
 10
92.000000
 20
188.000000
  0
VERTEX
  8
Layer0
 62
8
 10
24.000000
 20
188.000000
  0
SEQEND
  0
POLYLINE
  8
Layer0
 62
8
 66
1
 70
1
  0
VERTEX
  8
Layer0
 62
8
 10
40.000000
 20
212.000000
  0
VERTEX
  8
Layer0
 62
8
 10
40.000000
 20
214.000000
  0
VERTEX
  8
Layer0
 62
8
 10
48.000000
 20
214.000000
  0
VERTEX
  8
Layer0
 62
8
 10
48.000000
 20
212.000000
  0
VERTEX
  8
Layer0
 62
8
 10
40.000000
 20
212.000000
  0
SEQEND
  0
POLYLINE
  8
Layer0
 62
8
 66
1
 70
1
  0
VERTEX
  8
Layer0
 62
8
 10
42.846714
 20
208.000000
  0
VERTEX
  8
Layer0
 62
8
 10
42.846714
 20
212.000000
  0
VERTEX
  8
Layer0
 62
8
 10
44.846714
 20
212.000000
  0
VERTEX
  8
Layer0
 62
8
 10
44.846714
 20
208.000000
  0
VERTEX
  8
Layer0
 62
8
 10
42.846714
 20
208.000000
  0
SEQEND
  0
POLYLINE
  8
Layer0
 62
8
 66
1
 70
1
  0
VERTEX
  8
Layer0
 62
8
 10
68.000000
 20
212.000000
  0
VERTEX
  8
Layer0
 62
8
 10
68.000000
 20
214.000000
  0
VERTEX
  8
Layer0
 62
8
 10
76.000000
 20
214.000000
  0
VERTEX
  8
Layer0
 62
8
 10
76.000000
 20
212.000000
  0
VERTEX
  8
Layer0
 62
8
 10
68.000000
 20
212.000000
  0
SEQEND
  0
POLYLINE
  8
Layer0
 62
8
 66
1
 70
1
  0
VERTEX
  8
Layer0
 62
8
 10
70.846710
 20
208.000000
  0
VERTEX
  8
Layer0
 62
8
 10
70.846710
 20
212.000000
  0
VERTEX
  8
Layer0
 62
8
 10
72.846710
 20
212.000000
  0
VERTEX
  8
Layer0
 62
8
 10
72.846710
 20
208.000000
  0
VERTEX
  8
Layer0
 62
8
 10
70.846710
 20
208.000000
  0
SEQEND
  0
ENDBLK
  0
ENDSEC
  0
SECTION
  2
ENTITIES
  0
INSERT
  8
Layer0
  2
groupobj_0
 10
24.000000
 20
188.000000
  0
ENDSEC
  0
EOF
