  0
SECTION
  2
HEADER
  9
$HANDLING
 70
0
  0
ENDSEC
  0
SECTION
  2
TABLES
  0
TABLE
  2
LTYPE
 70
8
  0
LTYPE
  2
CONTINUOUS
 70
64
  3
Solid line
 72
65
 73
0
 40
0.000000
  0
LTYPE
  2
DASHED
 70
64
  3
__ __ __ __
 72
65
 73
2
 40
18.750000
 49
12.500000
 49
-6.250000
  0
LTYPE
  2
HIDDEN
 70
64
  3
_ _ _ _ _ _
 72
65
 73
2
 40
9.375000
 49
6.250000
 49
-3.125000
  0
LTYPE
  2
DASHDOT
 70
64
  3
__.__.__.__
 72
65
 73
4
 40
25.000000
 49
12.500000
 49
-6.250000
 49
0.000000
 49
-6.250000
  0
ENDTAB
  0
TABLE
  2
LAYER
 70
1
  0
LAYER
  2
Layer0
 70
0
 62
8
  6
CONTINUOUS
  0
ENDTAB
  0
TABLE
  2
APPID
 70
1
  0
APPID
  2
smartdraw
 70
0
  0
ENDTAB
  0
TABLE
  2
UCS
 70
1
  0
UCS
  2
UCSENTRY1
 70
0
 10
0.000000
 20
0.000000
 11
1.000000
 21
0.000000
 12
0.000000
 22
1.000000
  0
ENDTAB
  0
ENDSEC
  0
SECTION
  2
BLOCKS
  0
BLOCK
 70
0
  2
none
 10
0
 20
0
  0
ENDBLK
  0
BLOCK
  8
Layer0
 70
0
  2
groupobj_0
 10
73.875931
 20
140.437943
  0
ARC
 10
84.041672
 20
219.263870
  8
Layer0
 40
11.263943
 50
206.857149
 51
332.139542
  0
LINE
 10
94.000000
 20
214.000000
  8
Layer0
 11
102.000000
 21
206.000000
  0
ARC
 10
113.540581
 20
199.180191
  8
Layer0
 40
13.591911
 50
149.598769
 51
211.888579
  0
ARC
 10
50.511810
 20
170.460983
  8
Layer0
 40
55.843327
 50
343.067689
 51
23.256880
  0
ARC
 10
85.654121
 20
161.562332
  8
Layer0
 40
19.567348
 50
280.823205
 51
337.934981
  0
ARC
 10
82.454521
 20
134.597656
  8
Layer0
 40
10.377916
 50
50.061423
 51
145.753026
  0
ENDBLK
  0
BLOCK
  8
Layer0
 70
0
  2
groupobj_1
 10
41.651104
 20
140.437943
  0
ARC
 10
63.958328
 20
219.263870
  8
Layer0
 40
11.263943
 50
207.860474
 51
333.142847
  0
LINE
 10
54.000000
 20
214.000000
  8
Layer0
 11
46.000000
 21
206.000000
  0
ARC
 10
34.459419
 20
199.180191
  8
Layer0
 40
13.591911
 50
328.111398
 51
30.401241
  0
ARC
 10
97.488190
 20
170.460983
  8
Layer0
 40
55.843327
 50
156.743120
 51
196.932308
  0
ARC
 10
62.345879
 20
161.562332
  8
Layer0
 40
19.567348
 50
202.065035
 51
259.176753
  0
ARC
 10
65.545479
 20
134.597656
  8
Layer0
 40
10.377916
 50
34.246947
 51
129.938568
  0
ENDBLK
  0
BLOCK
  8
Layer0
 70
0
  2
groupobj_2
 10
41.651104
 20
140.437943
  0
INSERT
  8
Layer0
  2
groupobj_0
 10
73.875931
 20
140.437943
  0
INSERT
  8
Layer0
  2
groupobj_1
 10
41.651104
 20
140.437943
  0
ENDBLK
  0
ENDSEC
  0
SECTION
  2
ENTITIES
  0
INSERT
  8
Layer0
  2
groupobj_2
 10
41.651104
 20
140.437943
  0
ENDSEC
  0
EOF
