  0
SECTION
  2
HEADER
  9
$HANDLING
 70
0
  0
ENDSEC
  0
SECTION
  2
TABLES
  0
TABLE
  2
LTYPE
 70
8
  0
LTYPE
  2
CONTINUOUS
 70
64
  3
Solid line
 72
65
 73
0
 40
0.000000
  0
LTYPE
  2
DASHED
 70
64
  3
__ __ __ __
 72
65
 73
2
 40
18.750000
 49
12.500000
 49
-6.250000
  0
LTYPE
  2
HIDDEN
 70
64
  3
_ _ _ _ _ _
 72
65
 73
2
 40
9.375000
 49
6.250000
 49
-3.125000
  0
LTYPE
  2
DASHDOT
 70
64
  3
__.__.__.__
 72
65
 73
4
 40
25.000000
 49
12.500000
 49
-6.250000
 49
0.000000
 49
-6.250000
  0
ENDTAB
  0
TABLE
  2
LAYER
 70
1
  0
LAYER
  2
Layer0
 70
0
 62
8
  6
CONTINUOUS
  0
ENDTAB
  0
TABLE
  2
APPID
 70
1
  0
APPID
  2
smartdraw
 70
0
  0
ENDTAB
  0
TABLE
  2
UCS
 70
1
  0
UCS
  2
UCSENTRY1
 70
0
 10
0.000000
 20
0.000000
 11
1.000000
 21
0.000000
 12
0.000000
 22
1.000000
  0
ENDTAB
  0
ENDSEC
  0
SECTION
  2
BLOCKS
  0
BLOCK
 70
0
  2
none
 10
0
 20
0
  0
ENDBLK
  0
BLOCK
  8
Layer0
 70
0
  2
groupobj_0
 10
30.364964
 20
434.649628
  0
LINE
 10
30.364964
 20
438.671509
  8
Layer0
 11
30.364964
 21
434.861298
  0
LINE
 10
36.729923
 20
436.737183
  8
Layer0
 11
30.788321
 21
434.649628
  0
LINE
 10
36.729923
 20
440.737183
  8
Layer0
 11
30.364964
 21
438.671509
  0
ENDBLK
  0
BLOCK
  8
Layer0
 70
0
  2
groupobj_1
 10
51.321167
 20
440.999969
  0
LINE
 10
57.248177
 20
442.693420
  8
Layer0
 11
51.321167
 21
440.999969
  0
LINE
 10
57.671532
 20
447.138672
  8
Layer0
 11
57.671532
 21
442.693420
  0
LINE
 10
51.437954
 20
445.138702
  8
Layer0
 11
57.459854
 21
447.138672
  0
ENDBLK
  0
BLOCK
  8
Layer0
 70
0
  2
groupobj_2
 10
51.226276
 20
459.321136
  0
LINE
 10
57.153286
 20
461.014587
  8
Layer0
 11
51.226276
 21
459.321136
  0
LINE
 10
57.576641
 20
465.459839
  8
Layer0
 11
57.576641
 21
461.014587
  0
LINE
 10
51.343063
 20
463.459869
  8
Layer0
 11
57.364964
 21
465.459839
  0
ENDBLK
  0
BLOCK
  8
Layer0
 70
0
  2
groupobj_3
 10
29.846716
 20
452.547455
  0
LINE
 10
29.846716
 20
456.569336
  8
Layer0
 11
29.846716
 21
452.759125
  0
LINE
 10
36.211678
 20
454.635010
  8
Layer0
 11
30.270073
 21
452.547455
  0
LINE
 10
36.211678
 20
458.635010
  8
Layer0
 11
29.846716
 21
456.569336
  0
ENDBLK
  0
BLOCK
  8
Layer0
 70
0
  2
groupobj_4
 10
29.846716
 20
422.912415
  0
LINE
 10
49.532848
 20
427.145996
  8
Layer0
 11
51.437958
 21
427.569366
  0
LINE
 10
49.876507
 20
427.403687
  8
Layer0
 11
49.876507
 21
441.228943
  0
LINE
 10
51.358269
 20
427.602112
  8
Layer0
 11
51.358269
 21
441.427368
  0
LINE
 10
38.313869
 20
423.547455
  8
Layer0
 11
36.620438
 21
422.912415
  0
LINE
 10
36.847313
 20
436.836578
  8
Layer0
 11
36.847313
 21
423.011322
  0
LINE
 10
38.445854
 20
436.823334
  8
Layer0
 11
38.445854
 21
422.998077
  0
INSERT
  8
Layer0
  2
groupobj_0
 10
30.364964
 20
434.649628
  0
LINE
 10
49.788319
 20
444.941620
  8
Layer0
 11
37.788319
 21
440.941620
  0
LINE
 10
51.358265
 20
445.390411
  8
Layer0
 11
51.358265
 21
459.215668
  0
LINE
 10
49.664829
 20
444.980255
  8
Layer0
 11
49.664829
 21
458.805511
  0
LINE
 10
36.635635
 20
454.624878
  8
Layer0
 11
36.635635
 21
440.799622
  0
LINE
 10
38.234173
 20
455.035004
  8
Layer0
 11
38.234173
 21
441.209747
  0
LINE
 10
49.532848
 20
477.102173
  8
Layer0
 11
51.014599
 21
477.525543
  0
LINE
 10
49.876507
 20
463.075165
  8
Layer0
 11
49.876507
 21
476.900421
  0
LINE
 10
51.146587
 20
463.908661
  8
Layer0
 11
51.146587
 21
477.733917
  0
LINE
 10
38.102188
 20
473.080292
  8
Layer0
 11
35.985401
 21
472.445251
  0
LINE
 10
38.022495
 20
472.706512
  8
Layer0
 11
38.022495
 21
458.881256
  0
LINE
 10
36.212280
 20
472.508087
  8
Layer0
 11
36.212280
 21
458.682831
  0
INSERT
  8
Layer0
  2
groupobj_1
 10
51.321167
 20
440.999969
  0
INSERT
  8
Layer0
  2
groupobj_2
 10
51.226276
 20
459.321136
  0
INSERT
  8
Layer0
  2
groupobj_3
 10
29.846716
 20
452.547455
  0
LINE
 10
49.788319
 20
440.729919
  8
Layer0
 11
37.788319
 21
436.729919
  0
LINE
 10
49.788319
 20
458.729919
  8
Layer0
 11
37.788319
 21
454.729919
  0
LINE
 10
49.788319
 20
462.729919
  8
Layer0
 11
37.788319
 21
458.729919
  0
ENDBLK
  0
ENDSEC
  0
SECTION
  2
ENTITIES
  0
INSERT
  8
Layer0
  2
groupobj_4
 10
29.846716
 20
422.912415
  0
TEXT
 10
84.459854
 20
117.364975
  8
Layer0
 40
25.000000
  1
"!
 11
84.459854
 21
191.452576
 72
0
  0
ENDSEC
  0
EOF
