  0
SECTION
  2
HEADER
  9
$HANDLING
 70
0
  0
ENDSEC
  0
SECTION
  2
TABLES
  0
TABLE
  2
LTYPE
 70
8
  0
LTYPE
  2
CONTINUOUS
 70
64
  3
Solid line
 72
65
 73
0
 40
0.000000
  0
LTYPE
  2
DASHED
 70
64
  3
__ __ __ __
 72
65
 73
2
 40
18.750000
 49
12.500000
 49
-6.250000
  0
LTYPE
  2
HIDDEN
 70
64
  3
_ _ _ _ _ _
 72
65
 73
2
 40
9.375000
 49
6.250000
 49
-3.125000
  0
LTYPE
  2
DASHDOT
 70
64
  3
__.__.__.__
 72
65
 73
4
 40
25.000000
 49
12.500000
 49
-6.250000
 49
0.000000
 49
-6.250000
  0
ENDTAB
  0
TABLE
  2
LAYER
 70
1
  0
LAYER
  2
Layer0
 70
0
 62
8
  6
CONTINUOUS
  0
ENDTAB
  0
TABLE
  2
APPID
 70
1
  0
APPID
  2
smartdraw
 70
0
  0
ENDTAB
  0
TABLE
  2
UCS
 70
1
  0
UCS
  2
UCSENTRY1
 70
0
 10
0.000000
 20
0.000000
 11
1.000000
 21
0.000000
 12
0.000000
 22
1.000000
  0
ENDTAB
  0
ENDSEC
  0
SECTION
  2
BLOCKS
  0
BLOCK
 70
0
  2
none
 10
0
 20
0
  0
ENDBLK
  0
BLOCK
  8
Layer0
 70
0
  2
groupobj_0
 10
63.927002
 20
202.000000
  0
ARC
 10
77.962379
 20
233.887161
  8
Layer0
 40
14.035831
 50
179.539385
 51
278.347288
  0
ARC
 10
80.407997
 20
205.901321
  8
Layer0
 40
14.140822
 50
343.984928
 51
92.452411
  0
ENDBLK
  0
BLOCK
  8
Layer0
 70
0
  2
groupobj_1
 10
63.026550
 20
202.000000
  0
INSERT
  8
Layer0
  2
groupobj_0
 10
63.927002
 20
202.000000
  0
ARC
 10
75.342682
 20
228.028015
  8
Layer0
 40
12.318074
 50
160.721780
 51
282.458098
  0
ARC
 10
76.788254
 20
198.472946
  8
Layer0
 40
17.569414
 50
11.580800
 51
86.379199
  0
ENDBLK
  0
BLOCK
  8
Layer0
 70
0
  2
groupobj_2
 10
63.927002
 20
190.000000
  0
ARC
 10
77.962379
 20
221.887161
  8
Layer0
 40
14.035831
 50
179.539385
 51
278.347288
  0
ARC
 10
80.407997
 20
193.901321
  8
Layer0
 40
14.140822
 50
343.984928
 51
92.452411
  0
ENDBLK
  0
BLOCK
  8
Layer0
 70
0
  2
groupobj_3
 10
63.026550
 20
190.000000
  0
INSERT
  8
Layer0
  2
groupobj_2
 10
63.927002
 20
190.000000
  0
ARC
 10
75.342682
 20
216.028015
  8
Layer0
 40
12.318074
 50
160.721780
 51
282.458098
  0
ARC
 10
76.788254
 20
186.472946
  8
Layer0
 40
17.569414
 50
11.580800
 51
86.379199
  0
ENDBLK
  0
BLOCK
  8
Layer0
 70
0
  2
groupobj_4
 10
42.806484
 20
140.023193
  0
INSERT
  8
Layer0
  2
groupobj_1
 10
63.026550
 20
202.000000
  0
INSERT
  8
Layer0
  2
groupobj_3
 10
63.026550
 20
190.000000
  0
ARC
 10
50.974892
 20
153.274109
  8
Layer0
 40
13.257247
 50
238.256387
 51
12.317194
  0
ARC
 10
55.193405
 20
147.313171
  8
Layer0
 40
12.390415
 50
45.181236
 51
205.392291
  0
LINE
 10
64.000000
 20
156.000000
  8
Layer0
 11
63.503651
 21
233.788315
  0
ENDBLK
  0
ENDSEC
  0
SECTION
  2
ENTITIES
  0
INSERT
  8
Layer0
  2
groupobj_4
 10
42.806484
 20
140.023193
  0
ENDSEC
  0
EOF
