  0
SECTION
  2
HEADER
  9
$HANDLING
 70
0
  0
ENDSEC
  0
SECTION
  2
TABLES
  0
TABLE
  2
LTYPE
 70
8
  0
LTYPE
  2
CONTINUOUS
 70
64
  3
Solid line
 72
65
 73
0
 40
0.000000
  0
LTYPE
  2
DASHED
 70
64
  3
__ __ __ __
 72
65
 73
2
 40
18.750000
 49
12.500000
 49
-6.250000
  0
LTYPE
  2
HIDDEN
 70
64
  3
_ _ _ _ _ _
 72
65
 73
2
 40
9.375000
 49
6.250000
 49
-3.125000
  0
LTYPE
  2
DASHDOT
 70
64
  3
__.__.__.__
 72
65
 73
4
 40
25.000000
 49
12.500000
 49
-6.250000
 49
0.000000
 49
-6.250000
  0
ENDTAB
  0
TABLE
  2
LAYER
 70
1
  0
LAYER
  2
Layer0
 70
0
 62
8
  6
CONTINUOUS
  0
ENDTAB
  0
TABLE
  2
APPID
 70
1
  0
APPID
  2
smartdraw
 70
0
  0
ENDTAB
  0
TABLE
  2
UCS
 70
1
  0
UCS
  2
UCSENTRY1
 70
0
 10
0.000000
 20
0.000000
 11
1.000000
 21
0.000000
 12
0.000000
 22
1.000000
  0
ENDTAB
  0
ENDSEC
  0
SECTION
  2
BLOCKS
  0
BLOCK
 70
0
  2
none
 10
0
 20
0
  0
ENDBLK
  0
BLOCK
  8
Layer0
 70
0
  2
groupobj_0
 10
43.999969
 20
169.995422
  0
ARC
 10
77.209381
 20
164.835068
  8
Layer0
 40
27.285149
 50
88.742646
 51
127.517750
  0
ARC
 10
92.011642
 20
171.675613
  8
Layer0
 40
20.438061
 50
50.256568
 51
90.097998
  0
ARC
 10
94.541992
 20
169.793945
  8
Layer0
 40
32.306217
 50
43.573188
 51
94.512925
  0
ARC
 10
79.338463
 20
145.307663
  8
Layer0
 40
58.707596
 50
91.306387
 51
127.212942
  0
LINE
 10
78.000000
 20
204.000000
  8
Layer0
 11
78.000000
 21
192.000000
  0
LINE
 10
92.000000
 20
188.000000
  8
Layer0
 11
82.000000
 21
198.000000
  0
LINE
 10
92.000000
 20
188.000000
  8
Layer0
 11
92.000000
 21
192.000000
  0
LINE
 10
92.000000
 20
208.000000
  8
Layer0
 11
92.000000
 21
202.000000
  0
LINE
 10
92.000000
 20
208.000000
  8
Layer0
 11
82.000000
 21
198.000000
  0
LINE
 10
44.000000
 20
192.000000
  8
Layer0
 11
44.000000
 21
178.000000
  0
LINE
 10
118.000000
 20
192.000000
  8
Layer0
 11
118.000000
 21
178.000000
  0
ARC
 10
80.905884
 20
259.076385
  8
Layer0
 40
89.080994
 50
245.525001
 51
294.571029
  0
ARC
 10
80.905884
 20
273.076385
  8
Layer0
 40
89.080994
 50
245.525001
 51
294.571029
  0
ENDBLK
  0
ENDSEC
  0
SECTION
  2
ENTITIES
  0
INSERT
  8
Layer0
  2
groupobj_0
 10
43.999969
 20
169.995422
  0
ENDSEC
  0
EOF
