  0
SECTION
  2
HEADER
  9
$HANDLING
 70
0
  0
ENDSEC
  0
SECTION
  2
TABLES
  0
TABLE
  2
LTYPE
 70
8
  0
LTYPE
  2
CONTINUOUS
 70
64
  3
Solid line
 72
65
 73
0
 40
0.000000
  0
LTYPE
  2
DASHED
 70
64
  3
__ __ __ __
 72
65
 73
2
 40
18.750000
 49
12.500000
 49
-6.250000
  0
LTYPE
  2
HIDDEN
 70
64
  3
_ _ _ _ _ _
 72
65
 73
2
 40
9.375000
 49
6.250000
 49
-3.125000
  0
LTYPE
  2
DASHDOT
 70
64
  3
__.__.__.__
 72
65
 73
4
 40
25.000000
 49
12.500000
 49
-6.250000
 49
0.000000
 49
-6.250000
  0
ENDTAB
  0
TABLE
  2
LAYER
 70
1
  0
LAYER
  2
Layer0
 70
0
 62
8
  6
CONTINUOUS
  0
ENDTAB
  0
TABLE
  2
APPID
 70
1
  0
APPID
  2
smartdraw
 70
0
  0
ENDTAB
  0
TABLE
  2
UCS
 70
1
  0
UCS
  2
UCSENTRY1
 70
0
 10
0.000000
 20
0.000000
 11
1.000000
 21
0.000000
 12
0.000000
 22
1.000000
  0
ENDTAB
  0
ENDSEC
  0
SECTION
  2
BLOCKS
  0
BLOCK
 70
0
  2
none
 10
0
 20
0
  0
ENDBLK
  0
BLOCK
  8
Layer0
 70
0
  2
groupobj_0
 10
42.000000
 20
140.000000
  0
LINE
 10
60.000000
 20
198.000000
  8
Layer0
 11
60.000000
 21
158.000000
  0
LINE
 10
60.000000
 20
158.000000
  8
Layer0
 11
42.000000
 21
140.000000
  0
LINE
 10
42.000000
 20
140.000000
  8
Layer0
 11
60.000000
 21
198.000000
  0
ENDBLK
  0
BLOCK
  8
Layer0
 70
0
  2
groupobj_1
 10
60.000000
 20
140.000000
  0
LINE
 10
60.000000
 20
198.000000
  8
Layer0
 11
60.000000
 21
158.000000
  0
LINE
 10
60.000000
 20
158.000000
  8
Layer0
 11
78.000000
 21
140.000000
  0
LINE
 10
78.000000
 20
140.000000
  8
Layer0
 11
60.000000
 21
198.000000
  0
ENDBLK
  0
BLOCK
  8
Layer0
 70
0
  2
groupobj_2
 10
52.189484
 20
205.743515
  0
POINT
 10
52.189484
 20
205.743515
  8
Layer0

  0
LINE
 10
57.501541
 20
221.619431
  8
Layer0
 11
52.189484
 21
221.619431
  0
LINE
 10
57.064781
 20
205.743515
  8
Layer0
 11
52.189484
 21
205.743515
  0
LINE
 10
57.501541
 20
221.619431
  8
Layer0
 11
63.690178
 21
214.163971
  0
LINE
 10
52.189484
 20
205.743515
  8
Layer0
 11
52.189484
 21
221.619431
  0
LINE
 10
57.064781
 20
213.907089
  8
Layer0
 11
57.064781
 21
205.743515
  0
LINE
 10
63.690178
 20
205.743515
  8
Layer0
 11
57.064781
 21
213.907089
  0
LINE
 10
63.690178
 20
221.619431
  8
Layer0
 11
63.690178
 21
214.163971
  0
LINE
 10
68.065399
 20
221.619431
  8
Layer0
 11
68.065399
 21
205.743515
  0
LINE
 10
68.065399
 20
221.619431
  8
Layer0
 11
63.690178
 21
221.619431
  0
LINE
 10
68.065399
 20
205.743515
  8
Layer0
 11
63.690178
 21
205.743515
  0
ENDBLK
  0
BLOCK
  8
Layer0
 70
0
  2
groupobj_3
 10
42.000000
 20
140.000000
  0
INSERT
  8
Layer0
  2
groupobj_0
 10
42.000000
 20
140.000000
  0
INSERT
  8
Layer0
  2
groupobj_1
 10
60.000000
 20
140.000000
  0
INSERT
  8
Layer0
  2
groupobj_2
 10
52.189484
 20
205.743515
  0
ENDBLK
  0
ENDSEC
  0
SECTION
  2
ENTITIES
  0
INSERT
  8
Layer0
  2
groupobj_3
 10
42.000000
 20
140.000000
  0
ENDSEC
  0
EOF
