  0
SECTION
  2
HEADER
  9
$HANDLING
 70
0
  0
ENDSEC
  0
SECTION
  2
TABLES
  0
TABLE
  2
LTYPE
 70
8
  0
LTYPE
  2
CONTINUOUS
 70
64
  3
Solid line
 72
65
 73
0
 40
0.000000
  0
LTYPE
  2
DASHED
 70
64
  3
__ __ __ __
 72
65
 73
2
 40
18.750000
 49
12.500000
 49
-6.250000
  0
LTYPE
  2
HIDDEN
 70
64
  3
_ _ _ _ _ _
 72
65
 73
2
 40
9.375000
 49
6.250000
 49
-3.125000
  0
LTYPE
  2
DASHDOT
 70
64
  3
__.__.__.__
 72
65
 73
4
 40
25.000000
 49
12.500000
 49
-6.250000
 49
0.000000
 49
-6.250000
  0
ENDTAB
  0
TABLE
  2
LAYER
 70
1
  0
LAYER
  2
Layer0
 70
0
 62
8
  6
CONTINUOUS
  0
ENDTAB
  0
TABLE
  2
APPID
 70
1
  0
APPID
  2
smartdraw
 70
0
  0
ENDTAB
  0
TABLE
  2
UCS
 70
1
  0
UCS
  2
UCSENTRY1
 70
0
 10
0.000000
 20
0.000000
 11
1.000000
 21
0.000000
 12
0.000000
 22
1.000000
  0
ENDTAB
  0
ENDSEC
  0
SECTION
  2
BLOCKS
  0
BLOCK
 70
0
  2
none
 10
0
 20
0
  0
ENDBLK
  0
BLOCK
  8
Layer0
 70
0
  2
groupobj_0
 10
48.262775
 20
207.711121
  0
POLYLINE
  8
Layer0
 62
8
 66
1
 70
1
  0
VERTEX
  8
Layer0
 62
8
 10
48.262775
 20
207.915863
  0
VERTEX
  8
Layer0
 62
8
 10
48.262775
 20
214.149811
  0
VERTEX
  8
Layer0
 62
8
 10
49.637978
 20
214.149811
  0
VERTEX
  8
Layer0
 62
8
 10
49.637978
 20
207.915863
  0
VERTEX
  8
Layer0
 62
8
 10
48.262775
 20
207.915863
  0
SEQEND
  0
CIRCLE
 10
53.264114
 20
209.507248
  8
Layer0
 40
1.073310
  0
CIRCLE
 10
52.985161
 20
212.679672
  8
Layer0
 40
0.895612
  0
CIRCLE
 10
53.114674
 20
209.492691
  8
Layer0
 40
1.781572
  0
CIRCLE
 10
53.114674
 20
212.679672
  8
Layer0
 40
1.593487
  0
ENDBLK
  0
BLOCK
  8
Layer0
 70
0
  2
groupobj_1
 10
45.934311
 20
151.921555
  0
ARC
 10
51.166374
 20
148.667236
  8
Layer0
 40
7.424947
 50
50.560098
 51
134.092100
  0
ARC
 10
51.046806
 20
158.859589
  8
Layer0
 40
6.939003
 50
222.542460
 51
315.546551
  0
ENDBLK
  0
BLOCK
  8
Layer0
 70
0
  2
groupobj_2
 10
34.503647
 20
151.921555
  0
ARC
 10
51.242226
 20
149.153046
  8
Layer0
 40
5.085872
 50
51.597767
 51
138.791124
  0
LINE
 10
34.503647
 20
211.773727
  8
Layer0
 11
55.459854
 21
204.364975
  0
LINE
 10
34.503647
 20
211.773727
  8
Layer0
 11
55.883209
 21
217.489059
  0
INSERT
  8
Layer0
  2
groupobj_0
 10
48.262775
 20
207.711121
  0
LINE
 10
56.000000
 20
154.000000
  8
Layer0
 11
55.883213
 21
217.489044
  0
INSERT
  8
Layer0
  2
groupobj_1
 10
45.934311
 20
151.921555
  0
ENDBLK
  0
ENDSEC
  0
SECTION
  2
ENTITIES
  0
INSERT
  8
Layer0
  2
groupobj_2
 10
34.503647
 20
151.921555
  0
ENDSEC
  0
EOF
