  0
SECTION
  2
HEADER
  9
$HANDLING
 70
0
  0
ENDSEC
  0
SECTION
  2
TABLES
  0
TABLE
  2
LTYPE
 70
8
  0
LTYPE
  2
CONTINUOUS
 70
64
  3
Solid line
 72
65
 73
0
 40
0.000000
  0
LTYPE
  2
DASHED
 70
64
  3
__ __ __ __
 72
65
 73
2
 40
18.750000
 49
12.500000
 49
-6.250000
  0
LTYPE
  2
HIDDEN
 70
64
  3
_ _ _ _ _ _
 72
65
 73
2
 40
9.375000
 49
6.250000
 49
-3.125000
  0
LTYPE
  2
DASHDOT
 70
64
  3
__.__.__.__
 72
65
 73
4
 40
25.000000
 49
12.500000
 49
-6.250000
 49
0.000000
 49
-6.250000
  0
ENDTAB
  0
TABLE
  2
LAYER
 70
1
  0
LAYER
  2
Layer0
 70
0
 62
8
  6
CONTINUOUS
  0
ENDTAB
  0
TABLE
  2
APPID
 70
1
  0
APPID
  2
smartdraw
 70
0
  0
ENDTAB
  0
TABLE
  2
UCS
 70
1
  0
UCS
  2
UCSENTRY1
 70
0
 10
0.000000
 20
0.000000
 11
1.000000
 21
0.000000
 12
0.000000
 22
1.000000
  0
ENDTAB
  0
ENDSEC
  0
SECTION
  2
BLOCKS
  0
BLOCK
 70
0
  2
none
 10
0
 20
0
  0
ENDBLK
  0
BLOCK
  8
Layer0
 70
0
  2
groupobj_0
 10
21.946861
 20
226.956665
  0
LINE
 10
23.891844
 20
229.814346
  8
Layer0
 11
21.946861
 21
229.821289
  0
LINE
 10
23.545790
 20
228.703033
  8
Layer0
 11
21.988541
 21
229.814346
  0
LINE
 10
26.833307
 20
229.814346
  8
Layer0
 11
25.276060
 21
228.703033
  0
LINE
 10
25.968174
 20
227.115448
  8
Layer0
 11
25.276060
 21
228.703033
  0
LINE
 10
24.930004
 20
229.814346
  8
Layer0
 11
26.833307
 21
229.814346
  0
LINE
 10
24.410927
 20
228.067993
  8
Layer0
 11
23.026705
 21
226.956665
  0
LINE
 10
23.545790
 20
228.703033
  8
Layer0
 11
23.026705
 21
226.956665
  0
LINE
 10
25.968174
 20
227.115448
  8
Layer0
 11
24.410927
 21
228.067993
  0
LINE
 10
24.410927
 20
231.401932
  8
Layer0
 11
23.891844
 21
229.814346
  0
LINE
 10
24.410927
 20
231.401932
  8
Layer0
 11
24.930004
 21
229.814346
  0
ENDBLK
  0
BLOCK
  8
Layer0
 70
0
  2
groupobj_1
 10
25.129608
 20
222.439270
  0
LINE
 10
27.074589
 20
225.296967
  8
Layer0
 11
25.129608
 21
225.303909
  0
LINE
 10
26.728535
 20
224.185638
  8
Layer0
 11
25.171286
 21
225.296967
  0
LINE
 10
30.016052
 20
225.296967
  8
Layer0
 11
28.458803
 21
224.185638
  0
LINE
 10
29.150917
 20
222.598053
  8
Layer0
 11
28.458803
 21
224.185638
  0
LINE
 10
28.112749
 20
225.296967
  8
Layer0
 11
30.016052
 21
225.296967
  0
LINE
 10
27.593672
 20
223.550613
  8
Layer0
 11
26.209450
 21
222.439270
  0
LINE
 10
26.728535
 20
224.185638
  8
Layer0
 11
26.209450
 21
222.439270
  0
LINE
 10
29.150917
 20
222.598053
  8
Layer0
 11
27.593672
 21
223.550613
  0
LINE
 10
27.593672
 20
226.884552
  8
Layer0
 11
27.074589
 21
225.296967
  0
LINE
 10
27.593672
 20
226.884552
  8
Layer0
 11
28.112749
 21
225.296967
  0
ENDBLK
  0
BLOCK
  8
Layer0
 70
0
  2
groupobj_2
 10
30.558985
 20
227.015274
  0
LINE
 10
32.503967
 20
229.872940
  8
Layer0
 11
30.558985
 21
229.879898
  0
LINE
 10
32.157917
 20
228.761642
  8
Layer0
 11
30.600666
 21
229.872940
  0
LINE
 10
35.445431
 20
229.872940
  8
Layer0
 11
33.888184
 21
228.761642
  0
LINE
 10
34.580296
 20
227.174042
  8
Layer0
 11
33.888184
 21
228.761642
  0
LINE
 10
33.542130
 20
229.872940
  8
Layer0
 11
35.445431
 21
229.872940
  0
LINE
 10
33.023048
 20
228.126587
  8
Layer0
 11
31.638828
 21
227.015274
  0
LINE
 10
32.157917
 20
228.761642
  8
Layer0
 11
31.638828
 21
227.015274
  0
LINE
 10
34.580296
 20
227.174042
  8
Layer0
 11
33.023048
 21
228.126587
  0
LINE
 10
33.023048
 20
231.460541
  8
Layer0
 11
32.503967
 21
229.872940
  0
LINE
 10
33.023048
 20
231.460541
  8
Layer0
 11
33.542130
 21
229.872940
  0
ENDBLK
  0
BLOCK
  8
Layer0
 70
0
  2
groupobj_3
 10
39.381737
 20
227.015274
  0
LINE
 10
41.326717
 20
229.872940
  8
Layer0
 11
39.381737
 21
229.879898
  0
LINE
 10
40.980659
 20
228.761642
  8
Layer0
 11
39.423416
 21
229.872940
  0
LINE
 10
44.268181
 20
229.872940
  8
Layer0
 11
42.710938
 21
228.761642
  0
LINE
 10
43.403046
 20
227.174042
  8
Layer0
 11
42.710938
 21
228.761642
  0
LINE
 10
42.364883
 20
229.872940
  8
Layer0
 11
44.268181
 21
229.872940
  0
LINE
 10
41.845795
 20
228.126587
  8
Layer0
 11
40.461575
 21
227.015274
  0
LINE
 10
40.980659
 20
228.761642
  8
Layer0
 11
40.461575
 21
227.015274
  0
LINE
 10
43.403046
 20
227.174042
  8
Layer0
 11
41.845795
 21
228.126587
  0
LINE
 10
41.845795
 20
231.460541
  8
Layer0
 11
41.326717
 21
229.872940
  0
LINE
 10
41.845795
 20
231.460541
  8
Layer0
 11
42.364883
 21
229.872940
  0
ENDBLK
  0
BLOCK
  8
Layer0
 70
0
  2
groupobj_4
 10
47.661545
 20
227.015274
  0
LINE
 10
49.606522
 20
229.872940
  8
Layer0
 11
47.661545
 21
229.879898
  0
LINE
 10
49.260475
 20
228.761642
  8
Layer0
 11
47.703224
 21
229.872940
  0
LINE
 10
52.547989
 20
229.872940
  8
Layer0
 11
50.990742
 21
228.761642
  0
LINE
 10
51.682858
 20
227.174042
  8
Layer0
 11
50.990742
 21
228.761642
  0
LINE
 10
50.644691
 20
229.872940
  8
Layer0
 11
52.547989
 21
229.872940
  0
LINE
 10
50.125610
 20
228.126587
  8
Layer0
 11
48.741386
 21
227.015274
  0
LINE
 10
49.260475
 20
228.761642
  8
Layer0
 11
48.741386
 21
227.015274
  0
LINE
 10
51.682858
 20
227.174042
  8
Layer0
 11
50.125610
 21
228.126587
  0
LINE
 10
50.125610
 20
231.460541
  8
Layer0
 11
49.606522
 21
229.872940
  0
LINE
 10
50.125610
 20
231.460541
  8
Layer0
 11
50.644691
 21
229.872940
  0
ENDBLK
  0
BLOCK
  8
Layer0
 70
0
  2
groupobj_5
 10
35.370544
 20
222.367157
  0
LINE
 10
37.315529
 20
225.224823
  8
Layer0
 11
35.370544
 21
225.231781
  0
LINE
 10
36.969475
 20
224.113510
  8
Layer0
 11
35.412228
 21
225.224823
  0
LINE
 10
40.256989
 20
225.224823
  8
Layer0
 11
38.699745
 21
224.113510
  0
LINE
 10
39.391861
 20
222.525925
  8
Layer0
 11
38.699745
 21
224.113510
  0
LINE
 10
38.353691
 20
225.224823
  8
Layer0
 11
40.256989
 21
225.224823
  0
LINE
 10
37.834610
 20
223.478455
  8
Layer0
 11
36.450390
 21
222.367157
  0
LINE
 10
36.969475
 20
224.113510
  8
Layer0
 11
36.450390
 21
222.367157
  0
LINE
 10
39.391861
 20
222.525925
  8
Layer0
 11
37.834610
 21
223.478455
  0
LINE
 10
37.834610
 20
226.812408
  8
Layer0
 11
37.315529
 21
225.224823
  0
LINE
 10
37.834610
 20
226.812408
  8
Layer0
 11
38.353691
 21
225.224823
  0
ENDBLK
  0
BLOCK
  8
Layer0
 70
0
  2
groupobj_6
 10
44.057564
 20
222.367157
  0
LINE
 10
46.002548
 20
225.224823
  8
Layer0
 11
44.057564
 21
225.231781
  0
LINE
 10
45.656487
 20
224.113510
  8
Layer0
 11
44.099239
 21
225.224823
  0
LINE
 10
48.944004
 20
225.224823
  8
Layer0
 11
47.386757
 21
224.113510
  0
LINE
 10
48.078873
 20
222.525925
  8
Layer0
 11
47.386757
 21
224.113510
  0
LINE
 10
47.040707
 20
225.224823
  8
Layer0
 11
48.944004
 21
225.224823
  0
LINE
 10
46.521629
 20
223.478455
  8
Layer0
 11
45.137405
 21
222.367157
  0
LINE
 10
45.656487
 20
224.113510
  8
Layer0
 11
45.137405
 21
222.367157
  0
LINE
 10
48.078873
 20
222.525925
  8
Layer0
 11
46.521629
 21
223.478455
  0
LINE
 10
46.521629
 20
226.812408
  8
Layer0
 11
46.002548
 21
225.224823
  0
LINE
 10
46.521629
 20
226.812408
  8
Layer0
 11
47.040707
 21
225.224823
  0
ENDBLK
  0
BLOCK
  8
Layer0
 70
0
  2
groupobj_7
 10
56.212822
 20
227.015274
  0
LINE
 10
58.157799
 20
229.872940
  8
Layer0
 11
56.212822
 21
229.879898
  0
LINE
 10
57.811752
 20
228.761642
  8
Layer0
 11
56.254509
 21
229.872940
  0
LINE
 10
61.099274
 20
229.872940
  8
Layer0
 11
59.542023
 21
228.761642
  0
LINE
 10
60.234138
 20
227.174042
  8
Layer0
 11
59.542023
 21
228.761642
  0
LINE
 10
59.195969
 20
229.872940
  8
Layer0
 11
61.099274
 21
229.872940
  0
LINE
 10
58.676888
 20
228.126587
  8
Layer0
 11
57.292671
 21
227.015274
  0
LINE
 10
57.811752
 20
228.761642
  8
Layer0
 11
57.292671
 21
227.015274
  0
LINE
 10
60.234138
 20
227.174042
  8
Layer0
 11
58.676888
 21
228.126587
  0
LINE
 10
58.676888
 20
231.460541
  8
Layer0
 11
58.157799
 21
229.872940
  0
LINE
 10
58.676888
 20
231.460541
  8
Layer0
 11
59.195969
 21
229.872940
  0
ENDBLK
  0
BLOCK
  8
Layer0
 70
0
  2
groupobj_8
 10
64.764099
 20
227.146011
  0
LINE
 10
66.709084
 20
230.003693
  8
Layer0
 11
64.764099
 21
230.010651
  0
LINE
 10
66.363029
 20
228.892380
  8
Layer0
 11
64.805779
 21
230.003693
  0
LINE
 10
69.650543
 20
230.003693
  8
Layer0
 11
68.093300
 21
228.892380
  0
LINE
 10
68.785416
 20
227.304779
  8
Layer0
 11
68.093300
 21
228.892380
  0
LINE
 10
67.747246
 20
230.003693
  8
Layer0
 11
69.650543
 21
230.003693
  0
LINE
 10
67.228165
 20
228.257355
  8
Layer0
 11
65.843948
 21
227.146011
  0
LINE
 10
66.363029
 20
228.892380
  8
Layer0
 11
65.843948
 21
227.146011
  0
LINE
 10
68.785416
 20
227.304779
  8
Layer0
 11
67.228165
 21
228.257355
  0
LINE
 10
67.228165
 20
231.591278
  8
Layer0
 11
66.709084
 21
230.003693
  0
LINE
 10
67.228165
 20
231.591278
  8
Layer0
 11
67.747246
 21
230.003693
  0
ENDBLK
  0
BLOCK
  8
Layer0
 70
0
  2
groupobj_9
 10
52.473110
 20
222.367157
  0
LINE
 10
54.418091
 20
225.224838
  8
Layer0
 11
52.473110
 21
225.231781
  0
LINE
 10
54.072037
 20
224.113525
  8
Layer0
 11
52.514786
 21
225.224838
  0
LINE
 10
57.359558
 20
225.224838
  8
Layer0
 11
55.802315
 21
224.113525
  0
LINE
 10
56.494423
 20
222.525940
  8
Layer0
 11
55.802315
 21
224.113525
  0
LINE
 10
55.456253
 20
225.224838
  8
Layer0
 11
57.359558
 21
225.224838
  0
LINE
 10
54.937172
 20
223.478485
  8
Layer0
 11
53.552956
 21
222.367157
  0
LINE
 10
54.072037
 20
224.113525
  8
Layer0
 11
53.552956
 21
222.367157
  0
LINE
 10
56.494423
 20
222.525940
  8
Layer0
 11
54.937172
 21
223.478485
  0
LINE
 10
54.937172
 20
226.812424
  8
Layer0
 11
54.418091
 21
225.224838
  0
LINE
 10
54.937172
 20
226.812424
  8
Layer0
 11
55.456253
 21
225.224838
  0
ENDBLK
  0
BLOCK
  8
Layer0
 70
0
  2
groupobj_10
 10
60.888649
 20
222.367157
  0
LINE
 10
62.833633
 20
225.224838
  8
Layer0
 11
60.888649
 21
225.231781
  0
LINE
 10
62.487579
 20
224.113525
  8
Layer0
 11
60.930336
 21
225.224838
  0
LINE
 10
65.775101
 20
225.224838
  8
Layer0
 11
64.217850
 21
224.113525
  0
LINE
 10
64.909966
 20
222.525940
  8
Layer0
 11
64.217850
 21
224.113525
  0
LINE
 10
63.871796
 20
225.224838
  8
Layer0
 11
65.775101
 21
225.224838
  0
LINE
 10
63.352722
 20
223.478485
  8
Layer0
 11
61.968491
 21
222.367157
  0
LINE
 10
62.487579
 20
224.113525
  8
Layer0
 11
61.968491
 21
222.367157
  0
LINE
 10
64.909966
 20
222.525940
  8
Layer0
 11
63.352722
 21
223.478485
  0
LINE
 10
63.352722
 20
226.812424
  8
Layer0
 11
62.833633
 21
225.224838
  0
LINE
 10
63.352722
 20
226.812424
  8
Layer0
 11
63.871796
 21
225.224838
  0
ENDBLK
  0
BLOCK
  8
Layer0
 70
0
  2
groupobj_11
 10
21.946861
 20
222.367157
  0
INSERT
  8
Layer0
  2
groupobj_0
 10
21.946861
 20
226.956665
  0
INSERT
  8
Layer0
  2
groupobj_1
 10
25.129608
 20
222.439270
  0
INSERT
  8
Layer0
  2
groupobj_2
 10
30.558985
 20
227.015274
  0
INSERT
  8
Layer0
  2
groupobj_3
 10
39.381737
 20
227.015274
  0
INSERT
  8
Layer0
  2
groupobj_4
 10
47.661545
 20
227.015274
  0
INSERT
  8
Layer0
  2
groupobj_5
 10
35.370544
 20
222.367157
  0
INSERT
  8
Layer0
  2
groupobj_6
 10
44.057564
 20
222.367157
  0
INSERT
  8
Layer0
  2
groupobj_7
 10
56.212822
 20
227.015274
  0
INSERT
  8
Layer0
  2
groupobj_8
 10
64.764099
 20
227.146011
  0
INSERT
  8
Layer0
  2
groupobj_9
 10
52.473110
 20
222.367157
  0
INSERT
  8
Layer0
  2
groupobj_10
 10
60.888649
 20
222.367157
  0
ENDBLK
  0
BLOCK
  8
Layer0
 70
0
  2
groupobj_12
 10
22.007710
 20
217.994019
  0
LINE
 10
23.952694
 20
220.851685
  8
Layer0
 11
22.007710
 21
220.858627
  0
LINE
 10
23.606638
 20
219.740372
  8
Layer0
 11
22.049389
 21
220.851685
  0
LINE
 10
26.894156
 20
220.851685
  8
Layer0
 11
25.336910
 21
219.740372
  0
LINE
 10
26.029022
 20
218.152771
  8
Layer0
 11
25.336910
 21
219.740372
  0
LINE
 10
24.990854
 20
220.851685
  8
Layer0
 11
26.894156
 21
220.851685
  0
LINE
 10
24.471775
 20
219.105331
  8
Layer0
 11
23.087555
 21
217.994019
  0
LINE
 10
23.606638
 20
219.740372
  8
Layer0
 11
23.087555
 21
217.994019
  0
LINE
 10
26.029022
 20
218.152771
  8
Layer0
 11
24.471775
 21
219.105331
  0
LINE
 10
24.471775
 20
222.439270
  8
Layer0
 11
23.952694
 21
220.851685
  0
LINE
 10
24.471775
 20
222.439270
  8
Layer0
 11
24.990854
 21
220.851685
  0
ENDBLK
  0
BLOCK
  8
Layer0
 70
0
  2
groupobj_13
 10
25.190456
 20
213.476639
  0
LINE
 10
27.135439
 20
216.334320
  8
Layer0
 11
25.190456
 21
216.341248
  0
LINE
 10
26.789383
 20
215.222977
  8
Layer0
 11
25.232136
 21
216.334320
  0
LINE
 10
30.076899
 20
216.334320
  8
Layer0
 11
28.519653
 21
215.222977
  0
LINE
 10
29.211763
 20
213.635391
  8
Layer0
 11
28.519653
 21
215.222977
  0
LINE
 10
28.173599
 20
216.334320
  8
Layer0
 11
30.076899
 21
216.334320
  0
LINE
 10
27.654520
 20
214.587952
  8
Layer0
 11
26.270300
 21
213.476639
  0
LINE
 10
26.789383
 20
215.222977
  8
Layer0
 11
26.270300
 21
213.476639
  0
LINE
 10
29.211763
 20
213.635391
  8
Layer0
 11
27.654520
 21
214.587952
  0
LINE
 10
27.654520
 20
217.921875
  8
Layer0
 11
27.135439
 21
216.334320
  0
LINE
 10
27.654520
 20
217.921875
  8
Layer0
 11
28.173599
 21
216.334320
  0
ENDBLK
  0
BLOCK
  8
Layer0
 70
0
  2
groupobj_14
 10
30.619835
 20
218.052612
  0
LINE
 10
32.564816
 20
220.910278
  8
Layer0
 11
30.619835
 21
220.917236
  0
LINE
 10
32.218765
 20
219.798981
  8
Layer0
 11
30.661514
 21
220.910278
  0
LINE
 10
35.506279
 20
220.910278
  8
Layer0
 11
33.949036
 21
219.798981
  0
LINE
 10
34.641144
 20
218.211380
  8
Layer0
 11
33.949036
 21
219.798981
  0
LINE
 10
33.602982
 20
220.910278
  8
Layer0
 11
35.506279
 21
220.910278
  0
LINE
 10
33.083897
 20
219.163940
  8
Layer0
 11
31.699677
 21
218.052612
  0
LINE
 10
32.218765
 20
219.798981
  8
Layer0
 11
31.699677
 21
218.052612
  0
LINE
 10
34.641144
 20
218.211380
  8
Layer0
 11
33.083897
 21
219.163940
  0
LINE
 10
33.083897
 20
222.497864
  8
Layer0
 11
32.564816
 21
220.910278
  0
LINE
 10
33.083897
 20
222.497864
  8
Layer0
 11
33.602982
 21
220.910278
  0
ENDBLK
  0
BLOCK
  8
Layer0
 70
0
  2
groupobj_15
 10
39.442581
 20
218.052612
  0
LINE
 10
41.387566
 20
220.910278
  8
Layer0
 11
39.442581
 21
220.917236
  0
LINE
 10
41.041512
 20
219.798981
  8
Layer0
 11
39.484261
 21
220.910278
  0
LINE
 10
44.329033
 20
220.910278
  8
Layer0
 11
42.771786
 21
219.798981
  0
LINE
 10
43.463898
 20
218.211380
  8
Layer0
 11
42.771786
 21
219.798981
  0
LINE
 10
42.425728
 20
220.910278
  8
Layer0
 11
44.329033
 21
220.910278
  0
LINE
 10
41.906647
 20
219.163940
  8
Layer0
 11
40.522430
 21
218.052612
  0
LINE
 10
41.041512
 20
219.798981
  8
Layer0
 11
40.522430
 21
218.052612
  0
LINE
 10
43.463898
 20
218.211380
  8
Layer0
 11
41.906647
 21
219.163940
  0
LINE
 10
41.906647
 20
222.497864
  8
Layer0
 11
41.387566
 21
220.910278
  0
LINE
 10
41.906647
 20
222.497864
  8
Layer0
 11
42.425728
 21
220.910278
  0
ENDBLK
  0
BLOCK
  8
Layer0
 70
0
  2
groupobj_16
 10
47.722397
 20
218.052612
  0
LINE
 10
49.667374
 20
220.910278
  8
Layer0
 11
47.722397
 21
220.917236
  0
LINE
 10
49.321327
 20
219.798981
  8
Layer0
 11
47.764076
 21
220.910278
  0
LINE
 10
52.608841
 20
220.910278
  8
Layer0
 11
51.051590
 21
219.798981
  0
LINE
 10
51.743706
 20
218.211380
  8
Layer0
 11
51.051590
 21
219.798981
  0
LINE
 10
50.705540
 20
220.910278
  8
Layer0
 11
52.608841
 21
220.910278
  0
LINE
 10
50.186462
 20
219.163940
  8
Layer0
 11
48.802238
 21
218.052612
  0
LINE
 10
49.321327
 20
219.798981
  8
Layer0
 11
48.802238
 21
218.052612
  0
LINE
 10
51.743706
 20
218.211380
  8
Layer0
 11
50.186462
 21
219.163940
  0
LINE
 10
50.186462
 20
222.497864
  8
Layer0
 11
49.667374
 21
220.910278
  0
LINE
 10
50.186462
 20
222.497864
  8
Layer0
 11
50.705540
 21
220.910278
  0
ENDBLK
  0
BLOCK
  8
Layer0
 70
0
  2
groupobj_17
 10
35.431396
 20
213.404480
  0
LINE
 10
37.376377
 20
216.262161
  8
Layer0
 11
35.431396
 21
216.269119
  0
LINE
 10
37.030323
 20
215.150848
  8
Layer0
 11
35.473072
 21
216.262161
  0
LINE
 10
40.317841
 20
216.262161
  8
Layer0
 11
38.760590
 21
215.150848
  0
LINE
 10
39.452705
 20
213.563263
  8
Layer0
 11
38.760590
 21
215.150848
  0
LINE
 10
38.414543
 20
216.262161
  8
Layer0
 11
40.317841
 21
216.262161
  0
LINE
 10
37.895458
 20
214.515823
  8
Layer0
 11
36.511238
 21
213.404480
  0
LINE
 10
37.030323
 20
215.150848
  8
Layer0
 11
36.511238
 21
213.404480
  0
LINE
 10
39.452705
 20
213.563263
  8
Layer0
 11
37.895458
 21
214.515823
  0
LINE
 10
37.895458
 20
217.849747
  8
Layer0
 11
37.376377
 21
216.262161
  0
LINE
 10
37.895458
 20
217.849747
  8
Layer0
 11
38.414543
 21
216.262161
  0
ENDBLK
  0
BLOCK
  8
Layer0
 70
0
  2
groupobj_18
 10
44.118408
 20
213.404480
  0
LINE
 10
46.063393
 20
216.262161
  8
Layer0
 11
44.118408
 21
216.269119
  0
LINE
 10
45.717339
 20
215.150848
  8
Layer0
 11
44.160088
 21
216.262161
  0
LINE
 10
49.004852
 20
216.262161
  8
Layer0
 11
47.447609
 21
215.150848
  0
LINE
 10
48.139725
 20
213.563263
  8
Layer0
 11
47.447609
 21
215.150848
  0
LINE
 10
47.101555
 20
216.262161
  8
Layer0
 11
49.004852
 21
216.262161
  0
LINE
 10
46.582478
 20
214.515823
  8
Layer0
 11
45.198257
 21
213.404480
  0
LINE
 10
45.717339
 20
215.150848
  8
Layer0
 11
45.198257
 21
213.404480
  0
LINE
 10
48.139725
 20
213.563263
  8
Layer0
 11
46.582478
 21
214.515823
  0
LINE
 10
46.582478
 20
217.849747
  8
Layer0
 11
46.063393
 21
216.262161
  0
LINE
 10
46.582478
 20
217.849747
  8
Layer0
 11
47.101555
 21
216.262161
  0
ENDBLK
  0
BLOCK
  8
Layer0
 70
0
  2
groupobj_19
 10
56.273674
 20
218.052612
  0
LINE
 10
58.218658
 20
220.910278
  8
Layer0
 11
56.273674
 21
220.917236
  0
LINE
 10
57.872597
 20
219.798981
  8
Layer0
 11
56.315353
 21
220.910278
  0
LINE
 10
61.160110
 20
220.910278
  8
Layer0
 11
59.602875
 21
219.798981
  0
LINE
 10
60.294983
 20
218.211380
  8
Layer0
 11
59.602875
 21
219.798981
  0
LINE
 10
59.256821
 20
220.910278
  8
Layer0
 11
61.160110
 21
220.910278
  0
LINE
 10
58.737740
 20
219.163940
  8
Layer0
 11
57.353516
 21
218.052612
  0
LINE
 10
57.872597
 20
219.798981
  8
Layer0
 11
57.353516
 21
218.052612
  0
LINE
 10
60.294983
 20
218.211380
  8
Layer0
 11
58.737740
 21
219.163940
  0
LINE
 10
58.737740
 20
222.497864
  8
Layer0
 11
58.218658
 21
220.910278
  0
LINE
 10
58.737740
 20
222.497864
  8
Layer0
 11
59.256821
 21
220.910278
  0
ENDBLK
  0
BLOCK
  8
Layer0
 70
0
  2
groupobj_20
 10
64.824951
 20
218.183350
  0
LINE
 10
66.769936
 20
221.041031
  8
Layer0
 11
64.824951
 21
221.047989
  0
LINE
 10
66.423882
 20
219.929718
  8
Layer0
 11
64.866638
 21
221.041031
  0
LINE
 10
69.711395
 20
221.041031
  8
Layer0
 11
68.154152
 21
219.929718
  0
LINE
 10
68.846260
 20
218.342133
  8
Layer0
 11
68.154152
 21
219.929718
  0
LINE
 10
67.808098
 20
221.041031
  8
Layer0
 11
69.711395
 21
221.041031
  0
LINE
 10
67.289017
 20
219.294693
  8
Layer0
 11
65.904793
 21
218.183350
  0
LINE
 10
66.423882
 20
219.929718
  8
Layer0
 11
65.904793
 21
218.183350
  0
LINE
 10
68.846260
 20
218.342133
  8
Layer0
 11
67.289017
 21
219.294693
  0
LINE
 10
67.289017
 20
222.628616
  8
Layer0
 11
66.769936
 21
221.041031
  0
LINE
 10
67.289017
 20
222.628616
  8
Layer0
 11
67.808098
 21
221.041031
  0
ENDBLK
  0
BLOCK
  8
Layer0
 70
0
  2
groupobj_21
 10
52.533958
 20
213.404510
  0
LINE
 10
54.478935
 20
216.262161
  8
Layer0
 11
52.533958
 21
216.269119
  0
LINE
 10
54.132889
 20
215.150864
  8
Layer0
 11
52.575638
 21
216.262161
  0
LINE
 10
57.420403
 20
216.262161
  8
Layer0
 11
55.863152
 21
215.150864
  0
LINE
 10
56.555275
 20
213.563263
  8
Layer0
 11
55.863152
 21
215.150864
  0
LINE
 10
55.517105
 20
216.262161
  8
Layer0
 11
57.420403
 21
216.262161
  0
LINE
 10
54.998024
 20
214.515823
  8
Layer0
 11
53.613804
 21
213.404510
  0
LINE
 10
54.132889
 20
215.150864
  8
Layer0
 11
53.613804
 21
213.404510
  0
LINE
 10
56.555275
 20
213.563263
  8
Layer0
 11
54.998024
 21
214.515823
  0
LINE
 10
54.998024
 20
217.849762
  8
Layer0
 11
54.478935
 21
216.262161
  0
LINE
 10
54.998024
 20
217.849762
  8
Layer0
 11
55.517105
 21
216.262161
  0
ENDBLK
  0
BLOCK
  8
Layer0
 70
0
  2
groupobj_22
 10
60.949501
 20
213.404510
  0
LINE
 10
62.894485
 20
216.262161
  8
Layer0
 11
60.949501
 21
216.269119
  0
LINE
 10
62.548431
 20
215.150864
  8
Layer0
 11
60.991188
 21
216.262161
  0
LINE
 10
65.835945
 20
216.262161
  8
Layer0
 11
64.278702
 21
215.150864
  0
LINE
 10
64.970810
 20
213.563263
  8
Layer0
 11
64.278702
 21
215.150864
  0
LINE
 10
63.932648
 20
216.262161
  8
Layer0
 11
65.835945
 21
216.262161
  0
LINE
 10
63.413574
 20
214.515823
  8
Layer0
 11
62.029343
 21
213.404510
  0
LINE
 10
62.548431
 20
215.150864
  8
Layer0
 11
62.029343
 21
213.404510
  0
LINE
 10
64.970810
 20
213.563263
  8
Layer0
 11
63.413574
 21
214.515823
  0
LINE
 10
63.413574
 20
217.849762
  8
Layer0
 11
62.894485
 21
216.262161
  0
LINE
 10
63.413574
 20
217.849762
  8
Layer0
 11
63.932648
 21
216.262161
  0
ENDBLK
  0
BLOCK
  8
Layer0
 70
0
  2
groupobj_23
 10
22.007710
 20
213.404480
  0
INSERT
  8
Layer0
  2
groupobj_12
 10
22.007710
 20
217.994019
  0
INSERT
  8
Layer0
  2
groupobj_13
 10
25.190456
 20
213.476639
  0
INSERT
  8
Layer0
  2
groupobj_14
 10
30.619835
 20
218.052612
  0
INSERT
  8
Layer0
  2
groupobj_15
 10
39.442581
 20
218.052612
  0
INSERT
  8
Layer0
  2
groupobj_16
 10
47.722397
 20
218.052612
  0
INSERT
  8
Layer0
  2
groupobj_17
 10
35.431396
 20
213.404480
  0
INSERT
  8
Layer0
  2
groupobj_18
 10
44.118408
 20
213.404480
  0
INSERT
  8
Layer0
  2
groupobj_19
 10
56.273674
 20
218.052612
  0
INSERT
  8
Layer0
  2
groupobj_20
 10
64.824951
 20
218.183350
  0
INSERT
  8
Layer0
  2
groupobj_21
 10
52.533958
 20
213.404510
  0
INSERT
  8
Layer0
  2
groupobj_22
 10
60.949501
 20
213.404510
  0
ENDBLK
  0
BLOCK
  8
Layer0
 70
0
  2
groupobj_24
 10
22.007711
 20
209.103516
  0
LINE
 10
23.952696
 20
211.961197
  8
Layer0
 11
22.007711
 21
211.968140
  0
LINE
 10
23.606640
 20
210.849884
  8
Layer0
 11
22.049391
 21
211.961197
  0
LINE
 10
26.894159
 20
211.961197
  8
Layer0
 11
25.336912
 21
210.849884
  0
LINE
 10
26.029024
 20
209.262283
  8
Layer0
 11
25.336912
 21
210.849884
  0
LINE
 10
24.990856
 20
211.961197
  8
Layer0
 11
26.894159
 21
211.961197
  0
LINE
 10
24.471779
 20
210.214828
  8
Layer0
 11
23.087557
 21
209.103516
  0
LINE
 10
23.606640
 20
210.849884
  8
Layer0
 11
23.087557
 21
209.103516
  0
LINE
 10
26.029024
 20
209.262283
  8
Layer0
 11
24.471779
 21
210.214828
  0
LINE
 10
24.471779
 20
213.548782
  8
Layer0
 11
23.952696
 21
211.961197
  0
LINE
 10
24.471779
 20
213.548782
  8
Layer0
 11
24.990856
 21
211.961197
  0
ENDBLK
  0
BLOCK
  8
Layer0
 70
0
  2
groupobj_25
 10
25.190456
 20
204.586136
  0
LINE
 10
27.135441
 20
207.443802
  8
Layer0
 11
25.190456
 21
207.450760
  0
LINE
 10
26.789387
 20
206.332504
  8
Layer0
 11
25.232138
 21
207.443802
  0
LINE
 10
30.076904
 20
207.443802
  8
Layer0
 11
28.519653
 21
206.332504
  0
LINE
 10
29.211767
 20
204.744904
  8
Layer0
 11
28.519653
 21
206.332504
  0
LINE
 10
28.173601
 20
207.443802
  8
Layer0
 11
30.076904
 21
207.443802
  0
LINE
 10
27.654522
 20
205.697433
  8
Layer0
 11
26.270302
 21
204.586136
  0
LINE
 10
26.789387
 20
206.332504
  8
Layer0
 11
26.270302
 21
204.586136
  0
LINE
 10
29.211767
 20
204.744904
  8
Layer0
 11
27.654522
 21
205.697433
  0
LINE
 10
27.654522
 20
209.031387
  8
Layer0
 11
27.135441
 21
207.443802
  0
LINE
 10
27.654522
 20
209.031387
  8
Layer0
 11
28.173601
 21
207.443802
  0
ENDBLK
  0
BLOCK
  8
Layer0
 70
0
  2
groupobj_26
 10
30.619839
 20
209.162109
  0
LINE
 10
32.564819
 20
212.019791
  8
Layer0
 11
30.619839
 21
212.026749
  0
LINE
 10
32.218765
 20
210.908478
  8
Layer0
 11
30.661514
 21
212.019791
  0
LINE
 10
35.506279
 20
212.019791
  8
Layer0
 11
33.949036
 21
210.908478
  0
LINE
 10
34.641144
 20
209.320892
  8
Layer0
 11
33.949036
 21
210.908478
  0
LINE
 10
33.602982
 20
212.019791
  8
Layer0
 11
35.506279
 21
212.019791
  0
LINE
 10
33.083900
 20
210.273438
  8
Layer0
 11
31.699682
 21
209.162109
  0
LINE
 10
32.218765
 20
210.908478
  8
Layer0
 11
31.699682
 21
209.162109
  0
LINE
 10
34.641144
 20
209.320892
  8
Layer0
 11
33.083900
 21
210.273438
  0
LINE
 10
33.083900
 20
213.607376
  8
Layer0
 11
32.564819
 21
212.019791
  0
LINE
 10
33.083900
 20
213.607376
  8
Layer0
 11
33.602982
 21
212.019791
  0
ENDBLK
  0
BLOCK
  8
Layer0
 70
0
  2
groupobj_27
 10
39.442589
 20
209.162109
  0
LINE
 10
41.387566
 20
212.019791
  8
Layer0
 11
39.442589
 21
212.026749
  0
LINE
 10
41.041519
 20
210.908478
  8
Layer0
 11
39.484268
 21
212.019791
  0
LINE
 10
44.329033
 20
212.019791
  8
Layer0
 11
42.771786
 21
210.908478
  0
LINE
 10
43.463898
 20
209.320892
  8
Layer0
 11
42.771786
 21
210.908478
  0
LINE
 10
42.425728
 20
212.019791
  8
Layer0
 11
44.329033
 21
212.019791
  0
LINE
 10
41.906647
 20
210.273438
  8
Layer0
 11
40.522430
 21
209.162109
  0
LINE
 10
41.041519
 20
210.908478
  8
Layer0
 11
40.522430
 21
209.162109
  0
LINE
 10
43.463898
 20
209.320892
  8
Layer0
 11
41.906647
 21
210.273438
  0
LINE
 10
41.906647
 20
213.607376
  8
Layer0
 11
41.387566
 21
212.019791
  0
LINE
 10
41.906647
 20
213.607376
  8
Layer0
 11
42.425728
 21
212.019791
  0
ENDBLK
  0
BLOCK
  8
Layer0
 70
0
  2
groupobj_28
 10
47.722397
 20
209.162109
  0
LINE
 10
49.667374
 20
212.019791
  8
Layer0
 11
47.722397
 21
212.026749
  0
LINE
 10
49.321327
 20
210.908478
  8
Layer0
 11
47.764076
 21
212.019791
  0
LINE
 10
52.608841
 20
212.019791
  8
Layer0
 11
51.051590
 21
210.908478
  0
LINE
 10
51.743713
 20
209.320892
  8
Layer0
 11
51.051590
 21
210.908478
  0
LINE
 10
50.705540
 20
212.019791
  8
Layer0
 11
52.608841
 21
212.019791
  0
LINE
 10
50.186462
 20
210.273438
  8
Layer0
 11
48.802238
 21
209.162109
  0
LINE
 10
49.321327
 20
210.908478
  8
Layer0
 11
48.802238
 21
209.162109
  0
LINE
 10
51.743713
 20
209.320892
  8
Layer0
 11
50.186462
 21
210.273438
  0
LINE
 10
50.186462
 20
213.607376
  8
Layer0
 11
49.667374
 21
212.019791
  0
LINE
 10
50.186462
 20
213.607376
  8
Layer0
 11
50.705540
 21
212.019791
  0
ENDBLK
  0
BLOCK
  8
Layer0
 70
0
  2
groupobj_29
 10
35.431400
 20
204.513992
  0
LINE
 10
37.376377
 20
207.371674
  8
Layer0
 11
35.431400
 21
207.378616
  0
LINE
 10
37.030327
 20
206.260361
  8
Layer0
 11
35.473076
 21
207.371674
  0
LINE
 10
40.317841
 20
207.371674
  8
Layer0
 11
38.760597
 21
206.260361
  0
LINE
 10
39.452705
 20
204.672775
  8
Layer0
 11
38.760597
 21
206.260361
  0
LINE
 10
38.414543
 20
207.371674
  8
Layer0
 11
40.317841
 21
207.371674
  0
LINE
 10
37.895462
 20
205.625305
  8
Layer0
 11
36.511238
 21
204.513992
  0
LINE
 10
37.030327
 20
206.260361
  8
Layer0
 11
36.511238
 21
204.513992
  0
LINE
 10
39.452705
 20
204.672775
  8
Layer0
 11
37.895462
 21
205.625305
  0
LINE
 10
37.895462
 20
208.959259
  8
Layer0
 11
37.376377
 21
207.371674
  0
LINE
 10
37.895462
 20
208.959259
  8
Layer0
 11
38.414543
 21
207.371674
  0
ENDBLK
  0
BLOCK
  8
Layer0
 70
0
  2
groupobj_30
 10
44.118408
 20
204.513992
  0
LINE
 10
46.063393
 20
207.371674
  8
Layer0
 11
44.118408
 21
207.378616
  0
LINE
 10
45.717339
 20
206.260361
  8
Layer0
 11
44.160091
 21
207.371674
  0
LINE
 10
49.004852
 20
207.371674
  8
Layer0
 11
47.447609
 21
206.260361
  0
LINE
 10
48.139725
 20
204.672775
  8
Layer0
 11
47.447609
 21
206.260361
  0
LINE
 10
47.101555
 20
207.371674
  8
Layer0
 11
49.004852
 21
207.371674
  0
LINE
 10
46.582478
 20
205.625305
  8
Layer0
 11
45.198257
 21
204.513992
  0
LINE
 10
45.717339
 20
206.260361
  8
Layer0
 11
45.198257
 21
204.513992
  0
LINE
 10
48.139725
 20
204.672775
  8
Layer0
 11
46.582478
 21
205.625305
  0
LINE
 10
46.582478
 20
208.959259
  8
Layer0
 11
46.063393
 21
207.371674
  0
LINE
 10
46.582478
 20
208.959259
  8
Layer0
 11
47.101555
 21
207.371674
  0
ENDBLK
  0
BLOCK
  8
Layer0
 70
0
  2
groupobj_31
 10
56.273674
 20
209.162109
  0
LINE
 10
58.218658
 20
212.019791
  8
Layer0
 11
56.273674
 21
212.026749
  0
LINE
 10
57.872604
 20
210.908478
  8
Layer0
 11
56.315353
 21
212.019791
  0
LINE
 10
61.160110
 20
212.019791
  8
Layer0
 11
59.602875
 21
210.908478
  0
LINE
 10
60.294983
 20
209.320892
  8
Layer0
 11
59.602875
 21
210.908478
  0
LINE
 10
59.256821
 20
212.019791
  8
Layer0
 11
61.160110
 21
212.019791
  0
LINE
 10
58.737740
 20
210.273438
  8
Layer0
 11
57.353516
 21
209.162109
  0
LINE
 10
57.872604
 20
210.908478
  8
Layer0
 11
57.353516
 21
209.162109
  0
LINE
 10
60.294983
 20
209.320892
  8
Layer0
 11
58.737740
 21
210.273438
  0
LINE
 10
58.737740
 20
213.607376
  8
Layer0
 11
58.218658
 21
212.019791
  0
LINE
 10
58.737740
 20
213.607376
  8
Layer0
 11
59.256821
 21
212.019791
  0
ENDBLK
  0
BLOCK
  8
Layer0
 70
0
  2
groupobj_32
 10
64.824951
 20
209.292877
  0
LINE
 10
66.769936
 20
212.150543
  8
Layer0
 11
64.824951
 21
212.157486
  0
LINE
 10
66.423889
 20
211.039230
  8
Layer0
 11
64.866638
 21
212.150543
  0
LINE
 10
69.711395
 20
212.150543
  8
Layer0
 11
68.154160
 21
211.039230
  0
LINE
 10
68.846260
 20
209.451630
  8
Layer0
 11
68.154160
 21
211.039230
  0
LINE
 10
67.808105
 20
212.150543
  8
Layer0
 11
69.711395
 21
212.150543
  0
LINE
 10
67.289017
 20
210.404175
  8
Layer0
 11
65.904793
 21
209.292877
  0
LINE
 10
66.423889
 20
211.039230
  8
Layer0
 11
65.904793
 21
209.292877
  0
LINE
 10
68.846260
 20
209.451630
  8
Layer0
 11
67.289017
 21
210.404175
  0
LINE
 10
67.289017
 20
213.738129
  8
Layer0
 11
66.769936
 21
212.150543
  0
LINE
 10
67.289017
 20
213.738129
  8
Layer0
 11
67.808105
 21
212.150543
  0
ENDBLK
  0
BLOCK
  8
Layer0
 70
0
  2
groupobj_33
 10
52.533966
 20
204.514008
  0
LINE
 10
54.478935
 20
207.371689
  8
Layer0
 11
52.533966
 21
207.378632
  0
LINE
 10
54.132889
 20
206.260376
  8
Layer0
 11
52.575645
 21
207.371689
  0
LINE
 10
57.420410
 20
207.371689
  8
Layer0
 11
55.863152
 21
206.260376
  0
LINE
 10
56.555275
 20
204.672775
  8
Layer0
 11
55.863152
 21
206.260376
  0
LINE
 10
55.517105
 20
207.371689
  8
Layer0
 11
57.420410
 21
207.371689
  0
LINE
 10
54.998024
 20
205.625320
  8
Layer0
 11
53.613808
 21
204.514008
  0
LINE
 10
54.132889
 20
206.260376
  8
Layer0
 11
53.613808
 21
204.514008
  0
LINE
 10
56.555275
 20
204.672775
  8
Layer0
 11
54.998024
 21
205.625320
  0
LINE
 10
54.998024
 20
208.959259
  8
Layer0
 11
54.478935
 21
207.371689
  0
LINE
 10
54.998024
 20
208.959259
  8
Layer0
 11
55.517105
 21
207.371689
  0
ENDBLK
  0
BLOCK
  8
Layer0
 70
0
  2
groupobj_34
 10
60.949509
 20
204.514008
  0
LINE
 10
62.894485
 20
207.371689
  8
Layer0
 11
60.949509
 21
207.378632
  0
LINE
 10
62.548431
 20
206.260376
  8
Layer0
 11
60.991188
 21
207.371689
  0
LINE
 10
65.835953
 20
207.371689
  8
Layer0
 11
64.278702
 21
206.260376
  0
LINE
 10
64.970818
 20
204.672775
  8
Layer0
 11
64.278702
 21
206.260376
  0
LINE
 10
63.932648
 20
207.371689
  8
Layer0
 11
65.835953
 21
207.371689
  0
LINE
 10
63.413574
 20
205.625320
  8
Layer0
 11
62.029350
 21
204.514008
  0
LINE
 10
62.548431
 20
206.260376
  8
Layer0
 11
62.029350
 21
204.514008
  0
LINE
 10
64.970818
 20
204.672775
  8
Layer0
 11
63.413574
 21
205.625320
  0
LINE
 10
63.413574
 20
208.959259
  8
Layer0
 11
62.894485
 21
207.371689
  0
LINE
 10
63.413574
 20
208.959259
  8
Layer0
 11
63.932648
 21
207.371689
  0
ENDBLK
  0
BLOCK
  8
Layer0
 70
0
  2
groupobj_35
 10
22.007711
 20
204.513992
  0
INSERT
  8
Layer0
  2
groupobj_24
 10
22.007711
 20
209.103516
  0
INSERT
  8
Layer0
  2
groupobj_25
 10
25.190456
 20
204.586136
  0
INSERT
  8
Layer0
  2
groupobj_26
 10
30.619839
 20
209.162109
  0
INSERT
  8
Layer0
  2
groupobj_27
 10
39.442589
 20
209.162109
  0
INSERT
  8
Layer0
  2
groupobj_28
 10
47.722397
 20
209.162109
  0
INSERT
  8
Layer0
  2
groupobj_29
 10
35.431400
 20
204.513992
  0
INSERT
  8
Layer0
  2
groupobj_30
 10
44.118408
 20
204.513992
  0
INSERT
  8
Layer0
  2
groupobj_31
 10
56.273674
 20
209.162109
  0
INSERT
  8
Layer0
  2
groupobj_32
 10
64.824951
 20
209.292877
  0
INSERT
  8
Layer0
  2
groupobj_33
 10
52.533966
 20
204.514008
  0
INSERT
  8
Layer0
  2
groupobj_34
 10
60.949509
 20
204.514008
  0
ENDBLK
  0
BLOCK
  8
Layer0
 70
0
  2
groupobj_36
 10
21.871977
 20
200.343750
  0
LINE
 10
23.816959
 20
203.201416
  8
Layer0
 11
21.871977
 21
203.208359
  0
LINE
 10
23.470905
 20
202.090103
  8
Layer0
 11
21.913656
 21
203.201416
  0
LINE
 10
26.758423
 20
203.201416
  8
Layer0
 11
25.201174
 21
202.090103
  0
LINE
 10
25.893288
 20
200.502518
  8
Layer0
 11
25.201174
 21
202.090103
  0
LINE
 10
24.855122
 20
203.201416
  8
Layer0
 11
26.758423
 21
203.201416
  0
LINE
 10
24.336042
 20
201.455063
  8
Layer0
 11
22.951822
 21
200.343750
  0
LINE
 10
23.470905
 20
202.090103
  8
Layer0
 11
22.951822
 21
200.343750
  0
LINE
 10
25.893288
 20
200.502518
  8
Layer0
 11
24.336042
 21
201.455063
  0
LINE
 10
24.336042
 20
204.789001
  8
Layer0
 11
23.816959
 21
203.201416
  0
LINE
 10
24.336042
 20
204.789001
  8
Layer0
 11
24.855122
 21
203.201416
  0
ENDBLK
  0
BLOCK
  8
Layer0
 70
0
  2
groupobj_37
 10
25.054722
 20
195.826370
  0
LINE
 10
26.999702
 20
198.684052
  8
Layer0
 11
25.054722
 21
198.690979
  0
LINE
 10
26.653650
 20
197.572708
  8
Layer0
 11
25.096401
 21
198.684052
  0
LINE
 10
29.941168
 20
198.684052
  8
Layer0
 11
28.383917
 21
197.572708
  0
LINE
 10
29.076031
 20
195.985123
  8
Layer0
 11
28.383917
 21
197.572708
  0
LINE
 10
28.037867
 20
198.684052
  8
Layer0
 11
29.941168
 21
198.684052
  0
LINE
 10
27.518787
 20
196.937683
  8
Layer0
 11
26.134563
 21
195.826370
  0
LINE
 10
26.653650
 20
197.572708
  8
Layer0
 11
26.134563
 21
195.826370
  0
LINE
 10
29.076031
 20
195.985123
  8
Layer0
 11
27.518787
 21
196.937683
  0
LINE
 10
27.518787
 20
200.271637
  8
Layer0
 11
26.999702
 21
198.684052
  0
LINE
 10
27.518787
 20
200.271637
  8
Layer0
 11
28.037867
 21
198.684052
  0
ENDBLK
  0
BLOCK
  8
Layer0
 70
0
  2
groupobj_38
 10
30.484100
 20
200.402344
  0
LINE
 10
32.429085
 20
203.260010
  8
Layer0
 11
30.484100
 21
203.266968
  0
LINE
 10
32.083031
 20
202.148712
  8
Layer0
 11
30.525780
 21
203.260010
  0
LINE
 10
35.370544
 20
203.260010
  8
Layer0
 11
33.813297
 21
202.148712
  0
LINE
 10
34.505409
 20
200.561111
  8
Layer0
 11
33.813297
 21
202.148712
  0
LINE
 10
33.467243
 20
203.260010
  8
Layer0
 11
35.370544
 21
203.260010
  0
LINE
 10
32.948166
 20
201.513672
  8
Layer0
 11
31.563946
 21
200.402344
  0
LINE
 10
32.083031
 20
202.148712
  8
Layer0
 11
31.563946
 21
200.402344
  0
LINE
 10
34.505409
 20
200.561111
  8
Layer0
 11
32.948166
 21
201.513672
  0
LINE
 10
32.948166
 20
204.847595
  8
Layer0
 11
32.429085
 21
203.260010
  0
LINE
 10
32.948166
 20
204.847595
  8
Layer0
 11
33.467243
 21
203.260010
  0
ENDBLK
  0
BLOCK
  8
Layer0
 70
0
  2
groupobj_39
 10
39.306847
 20
200.402344
  0
LINE
 10
41.251839
 20
203.260010
  8
Layer0
 11
39.306847
 21
203.266968
  0
LINE
 10
40.905781
 20
202.148712
  8
Layer0
 11
39.348526
 21
203.260010
  0
LINE
 10
44.193298
 20
203.260010
  8
Layer0
 11
42.636047
 21
202.148712
  0
LINE
 10
43.328163
 20
200.561111
  8
Layer0
 11
42.636047
 21
202.148712
  0
LINE
 10
42.289993
 20
203.260010
  8
Layer0
 11
44.193298
 21
203.260010
  0
LINE
 10
41.770916
 20
201.513672
  8
Layer0
 11
40.386696
 21
200.402344
  0
LINE
 10
40.905781
 20
202.148712
  8
Layer0
 11
40.386696
 21
200.402344
  0
LINE
 10
43.328163
 20
200.561111
  8
Layer0
 11
41.770916
 21
201.513672
  0
LINE
 10
41.770916
 20
204.847595
  8
Layer0
 11
41.251839
 21
203.260010
  0
LINE
 10
41.770916
 20
204.847595
  8
Layer0
 11
42.289993
 21
203.260010
  0
ENDBLK
  0
BLOCK
  8
Layer0
 70
0
  2
groupobj_40
 10
47.586662
 20
200.402344
  0
LINE
 10
49.531643
 20
203.260010
  8
Layer0
 11
47.586662
 21
203.266968
  0
LINE
 10
49.185593
 20
202.148712
  8
Layer0
 11
47.628342
 21
203.260010
  0
LINE
 10
52.473106
 20
203.260010
  8
Layer0
 11
50.915863
 21
202.148712
  0
LINE
 10
51.607967
 20
200.561111
  8
Layer0
 11
50.915863
 21
202.148712
  0
LINE
 10
50.569801
 20
203.260010
  8
Layer0
 11
52.473106
 21
203.260010
  0
LINE
 10
50.050720
 20
201.513672
  8
Layer0
 11
48.666504
 21
200.402344
  0
LINE
 10
49.185593
 20
202.148712
  8
Layer0
 11
48.666504
 21
200.402344
  0
LINE
 10
51.607967
 20
200.561111
  8
Layer0
 11
50.050720
 21
201.513672
  0
LINE
 10
50.050720
 20
204.847595
  8
Layer0
 11
49.531643
 21
203.260010
  0
LINE
 10
50.050720
 20
204.847595
  8
Layer0
 11
50.569801
 21
203.260010
  0
ENDBLK
  0
BLOCK
  8
Layer0
 70
0
  2
groupobj_41
 10
35.295662
 20
195.754242
  0
LINE
 10
37.240643
 20
198.611893
  8
Layer0
 11
35.295662
 21
198.618851
  0
LINE
 10
36.894592
 20
197.500580
  8
Layer0
 11
35.337341
 21
198.611893
  0
LINE
 10
40.182106
 20
198.611893
  8
Layer0
 11
38.624863
 21
197.500580
  0
LINE
 10
39.316971
 20
195.912994
  8
Layer0
 11
38.624863
 21
197.500580
  0
LINE
 10
38.278809
 20
198.611893
  8
Layer0
 11
40.182106
 21
198.611893
  0
LINE
 10
37.759727
 20
196.865540
  8
Layer0
 11
36.375504
 21
195.754242
  0
LINE
 10
36.894592
 20
197.500580
  8
Layer0
 11
36.375504
 21
195.754242
  0
LINE
 10
39.316971
 20
195.912994
  8
Layer0
 11
37.759727
 21
196.865540
  0
LINE
 10
37.759727
 20
200.199478
  8
Layer0
 11
37.240643
 21
198.611893
  0
LINE
 10
37.759727
 20
200.199478
  8
Layer0
 11
38.278809
 21
198.611893
  0
ENDBLK
  0
BLOCK
  8
Layer0
 70
0
  2
groupobj_42
 10
43.982681
 20
195.754242
  0
LINE
 10
45.927662
 20
198.611893
  8
Layer0
 11
43.982681
 21
198.618851
  0
LINE
 10
45.581608
 20
197.500580
  8
Layer0
 11
44.024357
 21
198.611893
  0
LINE
 10
48.869125
 20
198.611893
  8
Layer0
 11
47.311874
 21
197.500580
  0
LINE
 10
48.003990
 20
195.912994
  8
Layer0
 11
47.311874
 21
197.500580
  0
LINE
 10
46.965828
 20
198.611893
  8
Layer0
 11
48.869125
 21
198.611893
  0
LINE
 10
46.446739
 20
196.865540
  8
Layer0
 11
45.062519
 21
195.754242
  0
LINE
 10
45.581608
 20
197.500580
  8
Layer0
 11
45.062519
 21
195.754242
  0
LINE
 10
48.003990
 20
195.912994
  8
Layer0
 11
46.446739
 21
196.865540
  0
LINE
 10
46.446739
 20
200.199478
  8
Layer0
 11
45.927662
 21
198.611893
  0
LINE
 10
46.446739
 20
200.199478
  8
Layer0
 11
46.965828
 21
198.611893
  0
ENDBLK
  0
BLOCK
  8
Layer0
 70
0
  2
groupobj_43
 10
56.137939
 20
200.402344
  0
LINE
 10
58.082924
 20
203.260010
  8
Layer0
 11
56.137939
 21
203.266968
  0
LINE
 10
57.736862
 20
202.148712
  8
Layer0
 11
56.179619
 21
203.260010
  0
LINE
 10
61.024384
 20
203.260010
  8
Layer0
 11
59.467133
 21
202.148712
  0
LINE
 10
60.159248
 20
200.561111
  8
Layer0
 11
59.467133
 21
202.148712
  0
LINE
 10
59.121078
 20
203.260010
  8
Layer0
 11
61.024384
 21
203.260010
  0
LINE
 10
58.602005
 20
201.513672
  8
Layer0
 11
57.217789
 21
200.402344
  0
LINE
 10
57.736862
 20
202.148712
  8
Layer0
 11
57.217789
 21
200.402344
  0
LINE
 10
60.159248
 20
200.561111
  8
Layer0
 11
58.602005
 21
201.513672
  0
LINE
 10
58.602005
 20
204.847595
  8
Layer0
 11
58.082924
 21
203.260010
  0
LINE
 10
58.602005
 20
204.847595
  8
Layer0
 11
59.121078
 21
203.260010
  0
ENDBLK
  0
BLOCK
  8
Layer0
 70
0
  2
groupobj_44
 10
64.689217
 20
200.533081
  0
LINE
 10
66.634193
 20
203.390762
  8
Layer0
 11
64.689217
 21
203.397720
  0
LINE
 10
66.288147
 20
202.279449
  8
Layer0
 11
64.730896
 21
203.390762
  0
LINE
 10
69.575668
 20
203.390762
  8
Layer0
 11
68.018410
 21
202.279449
  0
LINE
 10
68.710533
 20
200.691864
  8
Layer0
 11
68.018410
 21
202.279449
  0
LINE
 10
67.672363
 20
203.390762
  8
Layer0
 11
69.575668
 21
203.390762
  0
LINE
 10
67.153282
 20
201.644424
  8
Layer0
 11
65.769066
 21
200.533081
  0
LINE
 10
66.288147
 20
202.279449
  8
Layer0
 11
65.769066
 21
200.533081
  0
LINE
 10
68.710533
 20
200.691864
  8
Layer0
 11
67.153282
 21
201.644424
  0
LINE
 10
67.153282
 20
204.978348
  8
Layer0
 11
66.634193
 21
203.390762
  0
LINE
 10
67.153282
 20
204.978348
  8
Layer0
 11
67.672363
 21
203.390762
  0
ENDBLK
  0
BLOCK
  8
Layer0
 70
0
  2
groupobj_45
 10
52.398224
 20
195.754242
  0
LINE
 10
54.343208
 20
198.611908
  8
Layer0
 11
52.398224
 21
198.618851
  0
LINE
 10
53.997154
 20
197.500595
  8
Layer0
 11
52.439907
 21
198.611908
  0
LINE
 10
57.284668
 20
198.611908
  8
Layer0
 11
55.727425
 21
197.500595
  0
LINE
 10
56.419533
 20
195.913010
  8
Layer0
 11
55.727425
 21
197.500595
  0
LINE
 10
55.381371
 20
198.611908
  8
Layer0
 11
57.284668
 21
198.611908
  0
LINE
 10
54.862289
 20
196.865555
  8
Layer0
 11
53.478065
 21
195.754242
  0
LINE
 10
53.997154
 20
197.500595
  8
Layer0
 11
53.478065
 21
195.754242
  0
LINE
 10
56.419533
 20
195.913010
  8
Layer0
 11
54.862289
 21
196.865555
  0
LINE
 10
54.862289
 20
200.199493
  8
Layer0
 11
54.343208
 21
198.611908
  0
LINE
 10
54.862289
 20
200.199493
  8
Layer0
 11
55.381371
 21
198.611908
  0
ENDBLK
  0
BLOCK
  8
Layer0
 70
0
  2
groupobj_46
 10
60.813766
 20
195.754242
  0
LINE
 10
62.758759
 20
198.611908
  8
Layer0
 11
60.813766
 21
198.618851
  0
LINE
 10
62.412689
 20
197.500595
  8
Layer0
 11
60.855446
 21
198.611908
  0
LINE
 10
65.700218
 20
198.611908
  8
Layer0
 11
64.142967
 21
197.500595
  0
LINE
 10
64.835083
 20
195.913010
  8
Layer0
 11
64.142967
 21
197.500595
  0
LINE
 10
63.796913
 20
198.611908
  8
Layer0
 11
65.700218
 21
198.611908
  0
LINE
 10
63.277832
 20
196.865555
  8
Layer0
 11
61.893616
 21
195.754242
  0
LINE
 10
62.412689
 20
197.500595
  8
Layer0
 11
61.893616
 21
195.754242
  0
LINE
 10
64.835083
 20
195.913010
  8
Layer0
 11
63.277832
 21
196.865555
  0
LINE
 10
63.277832
 20
200.199493
  8
Layer0
 11
62.758759
 21
198.611908
  0
LINE
 10
63.277832
 20
200.199493
  8
Layer0
 11
63.796913
 21
198.611908
  0
ENDBLK
  0
BLOCK
  8
Layer0
 70
0
  2
groupobj_47
 10
21.871977
 20
195.754242
  0
INSERT
  8
Layer0
  2
groupobj_36
 10
21.871977
 20
200.343750
  0
INSERT
  8
Layer0
  2
groupobj_37
 10
25.054722
 20
195.826370
  0
INSERT
  8
Layer0
  2
groupobj_38
 10
30.484100
 20
200.402344
  0
INSERT
  8
Layer0
  2
groupobj_39
 10
39.306847
 20
200.402344
  0
INSERT
  8
Layer0
  2
groupobj_40
 10
47.586662
 20
200.402344
  0
INSERT
  8
Layer0
  2
groupobj_41
 10
35.295662
 20
195.754242
  0
INSERT
  8
Layer0
  2
groupobj_42
 10
43.982681
 20
195.754242
  0
INSERT
  8
Layer0
  2
groupobj_43
 10
56.137939
 20
200.402344
  0
INSERT
  8
Layer0
  2
groupobj_44
 10
64.689217
 20
200.533081
  0
INSERT
  8
Layer0
  2
groupobj_45
 10
52.398224
 20
195.754242
  0
INSERT
  8
Layer0
  2
groupobj_46
 10
60.813766
 20
195.754242
  0
ENDBLK
  0
BLOCK
  8
Layer0
 70
0
  2
groupobj_48
 10
22.007706
 20
191.583969
  0
LINE
 10
23.952686
 20
194.441650
  8
Layer0
 11
22.007706
 21
194.448593
  0
LINE
 10
23.606634
 20
193.330338
  8
Layer0
 11
22.049385
 21
194.441650
  0
LINE
 10
26.894152
 20
194.441650
  8
Layer0
 11
25.336903
 21
193.330338
  0
LINE
 10
26.029016
 20
191.742737
  8
Layer0
 11
25.336903
 21
193.330338
  0
LINE
 10
24.990850
 20
194.441650
  8
Layer0
 11
26.894152
 21
194.441650
  0
LINE
 10
24.471771
 20
192.695282
  8
Layer0
 11
23.087547
 21
191.583969
  0
LINE
 10
23.606634
 20
193.330338
  8
Layer0
 11
23.087547
 21
191.583969
  0
LINE
 10
26.029016
 20
191.742737
  8
Layer0
 11
24.471771
 21
192.695282
  0
LINE
 10
24.471771
 20
196.029236
  8
Layer0
 11
23.952686
 21
194.441650
  0
LINE
 10
24.471771
 20
196.029236
  8
Layer0
 11
24.990850
 21
194.441650
  0
ENDBLK
  0
BLOCK
  8
Layer0
 70
0
  2
groupobj_49
 10
30.619829
 20
191.642578
  0
LINE
 10
32.564812
 20
194.500244
  8
Layer0
 11
30.619829
 21
194.507172
  0
LINE
 10
32.218761
 20
193.388947
  8
Layer0
 11
30.661510
 21
194.500244
  0
LINE
 10
35.506279
 20
194.500244
  8
Layer0
 11
33.949028
 21
193.388947
  0
LINE
 10
34.641136
 20
191.801331
  8
Layer0
 11
33.949028
 21
193.388947
  0
LINE
 10
33.602974
 20
194.500244
  8
Layer0
 11
35.506279
 21
194.500244
  0
LINE
 10
33.083893
 20
192.753891
  8
Layer0
 11
31.699673
 21
191.642578
  0
LINE
 10
32.218761
 20
193.388947
  8
Layer0
 11
31.699673
 21
191.642578
  0
LINE
 10
34.641136
 20
191.801331
  8
Layer0
 11
33.083893
 21
192.753891
  0
LINE
 10
33.083893
 20
196.087830
  8
Layer0
 11
32.564812
 21
194.500244
  0
LINE
 10
33.083893
 20
196.087830
  8
Layer0
 11
33.602974
 21
194.500244
  0
ENDBLK
  0
BLOCK
  8
Layer0
 70
0
  2
groupobj_50
 10
39.442581
 20
191.642578
  0
LINE
 10
41.387558
 20
194.500244
  8
Layer0
 11
39.442581
 21
194.507172
  0
LINE
 10
41.041508
 20
193.388947
  8
Layer0
 11
39.484257
 21
194.500244
  0
LINE
 10
44.329025
 20
194.500244
  8
Layer0
 11
42.771774
 21
193.388947
  0
LINE
 10
43.463890
 20
191.801331
  8
Layer0
 11
42.771774
 21
193.388947
  0
LINE
 10
42.425728
 20
194.500244
  8
Layer0
 11
44.329025
 21
194.500244
  0
LINE
 10
41.906647
 20
192.753891
  8
Layer0
 11
40.522423
 21
191.642578
  0
LINE
 10
41.041508
 20
193.388947
  8
Layer0
 11
40.522423
 21
191.642578
  0
LINE
 10
43.463890
 20
191.801331
  8
Layer0
 11
41.906647
 21
192.753891
  0
LINE
 10
41.906647
 20
196.087830
  8
Layer0
 11
41.387558
 21
194.500244
  0
LINE
 10
41.906647
 20
196.087830
  8
Layer0
 11
42.425728
 21
194.500244
  0
ENDBLK
  0
BLOCK
  8
Layer0
 70
0
  2
groupobj_51
 10
47.722385
 20
191.642578
  0
LINE
 10
49.667374
 20
194.500244
  8
Layer0
 11
47.722385
 21
194.507172
  0
LINE
 10
49.321320
 20
193.388947
  8
Layer0
 11
47.764072
 21
194.500244
  0
LINE
 10
52.608833
 20
194.500244
  8
Layer0
 11
51.051590
 21
193.388947
  0
LINE
 10
51.743698
 20
191.801331
  8
Layer0
 11
51.051590
 21
193.388947
  0
LINE
 10
50.705532
 20
194.500244
  8
Layer0
 11
52.608833
 21
194.500244
  0
LINE
 10
50.186455
 20
192.753891
  8
Layer0
 11
48.802235
 21
191.642578
  0
LINE
 10
49.321320
 20
193.388947
  8
Layer0
 11
48.802235
 21
191.642578
  0
LINE
 10
51.743698
 20
191.801331
  8
Layer0
 11
50.186455
 21
192.753891
  0
LINE
 10
50.186455
 20
196.087830
  8
Layer0
 11
49.667374
 21
194.500244
  0
LINE
 10
50.186455
 20
196.087830
  8
Layer0
 11
50.705532
 21
194.500244
  0
ENDBLK
  0
BLOCK
  8
Layer0
 70
0
  2
groupobj_52
 10
56.273674
 20
191.642578
  0
LINE
 10
58.218651
 20
194.500244
  8
Layer0
 11
56.273674
 21
194.507172
  0
LINE
 10
57.872597
 20
193.388947
  8
Layer0
 11
56.315353
 21
194.500244
  0
LINE
 10
61.160110
 20
194.500244
  8
Layer0
 11
59.602867
 21
193.388947
  0
LINE
 10
60.294975
 20
191.801331
  8
Layer0
 11
59.602867
 21
193.388947
  0
LINE
 10
59.256813
 20
194.500244
  8
Layer0
 11
61.160110
 21
194.500244
  0
LINE
 10
58.737740
 20
192.753891
  8
Layer0
 11
57.353508
 21
191.642578
  0
LINE
 10
57.872597
 20
193.388947
  8
Layer0
 11
57.353508
 21
191.642578
  0
LINE
 10
60.294975
 20
191.801331
  8
Layer0
 11
58.737740
 21
192.753891
  0
LINE
 10
58.737740
 20
196.087830
  8
Layer0
 11
58.218651
 21
194.500244
  0
LINE
 10
58.737740
 20
196.087830
  8
Layer0
 11
59.256813
 21
194.500244
  0
ENDBLK
  0
BLOCK
  8
Layer0
 70
0
  2
groupobj_53
 10
64.824951
 20
191.773315
  0
LINE
 10
66.769928
 20
194.630997
  8
Layer0
 11
64.824951
 21
194.637955
  0
LINE
 10
66.423882
 20
193.519684
  8
Layer0
 11
64.866623
 21
194.630997
  0
LINE
 10
69.711395
 20
194.630997
  8
Layer0
 11
68.154152
 21
193.519684
  0
LINE
 10
68.846252
 20
191.932098
  8
Layer0
 11
68.154152
 21
193.519684
  0
LINE
 10
67.808083
 20
194.630997
  8
Layer0
 11
69.711395
 21
194.630997
  0
LINE
 10
67.289009
 20
192.884628
  8
Layer0
 11
65.904793
 21
191.773315
  0
LINE
 10
66.423882
 20
193.519684
  8
Layer0
 11
65.904793
 21
191.773315
  0
LINE
 10
68.846252
 20
191.932098
  8
Layer0
 11
67.289009
 21
192.884628
  0
LINE
 10
67.289009
 20
196.218582
  8
Layer0
 11
66.769928
 21
194.630997
  0
LINE
 10
67.289009
 20
196.218582
  8
Layer0
 11
67.808083
 21
194.630997
  0
ENDBLK
  0
BLOCK
  8
Layer0
 70
0
  2
groupobj_54
 10
21.871977
 20
191.583969
  0
INSERT
  8
Layer0
  2
groupobj_11
 10
21.946861
 20
222.367157
  0
INSERT
  8
Layer0
  2
groupobj_23
 10
22.007710
 20
213.404480
  0
INSERT
  8
Layer0
  2
groupobj_35
 10
22.007711
 20
204.513992
  0
INSERT
  8
Layer0
  2
groupobj_47
 10
21.871977
 20
195.754242
  0
INSERT
  8
Layer0
  2
groupobj_48
 10
22.007706
 20
191.583969
  0
INSERT
  8
Layer0
  2
groupobj_49
 10
30.619829
 20
191.642578
  0
INSERT
  8
Layer0
  2
groupobj_50
 10
39.442581
 20
191.642578
  0
INSERT
  8
Layer0
  2
groupobj_51
 10
47.722385
 20
191.642578
  0
INSERT
  8
Layer0
  2
groupobj_52
 10
56.273674
 20
191.642578
  0
INSERT
  8
Layer0
  2
groupobj_53
 10
64.824951
 20
191.773315
  0
ENDBLK
  0
BLOCK
  8
Layer0
 70
0
  2
groupobj_55
 10
18.000000
 20
147.598526
  0
POLYLINE
  8
Layer0
 62
8
 66
1
 70
1
  0
VERTEX
  8
Layer0
 62
8
 10
77.985413
 20
202.149780
  0
VERTEX
  8
Layer0
 62
8
 10
77.985413
 20
208.921875
  0
VERTEX
  8
Layer0
 62
8
 10
158.000015
 20
208.921875
  0
VERTEX
  8
Layer0
 62
8
 10
158.000015
 20
202.149780
  0
VERTEX
  8
Layer0
 62
8
 10
77.985413
 20
202.149780
  0
SEQEND
  0
POLYLINE
  8
Layer0
 62
8
 66
1
 70
1
  0
VERTEX
  8
Layer0
 62
8
 10
77.985413
 20
215.693970
  0
VERTEX
  8
Layer0
 62
8
 10
77.985413
 20
222.466064
  0
VERTEX
  8
Layer0
 62
8
 10
158.000015
 20
222.466064
  0
VERTEX
  8
Layer0
 62
8
 10
158.000015
 20
215.693970
  0
VERTEX
  8
Layer0
 62
8
 10
77.985413
 20
215.693970
  0
SEQEND
  0
POLYLINE
  8
Layer0
 62
8
 66
1
 70
1
  0
VERTEX
  8
Layer0
 62
8
 10
77.985413
 20
229.238159
  0
VERTEX
  8
Layer0
 62
8
 10
77.985413
 20
236.010254
  0
VERTEX
  8
Layer0
 62
8
 10
158.000015
 20
236.010254
  0
VERTEX
  8
Layer0
 62
8
 10
158.000015
 20
229.238159
  0
VERTEX
  8
Layer0
 62
8
 10
77.985413
 20
229.238159
  0
SEQEND
  0
POLYLINE
  8
Layer0
 62
8
 66
1
 70
1
  0
VERTEX
  8
Layer0
 62
8
 10
18.000000
 20
188.000000
  0
VERTEX
  8
Layer0
 62
8
 10
18.000000
 20
236.000000
  0
VERTEX
  8
Layer0
 62
8
 10
78.000000
 20
236.000000
  0
VERTEX
  8
Layer0
 62
8
 10
78.000000
 20
188.000000
  0
VERTEX
  8
Layer0
 62
8
 10
18.000000
 20
188.000000
  0
SEQEND
  0
INSERT
  8
Layer0
  2
groupobj_54
 10
21.871977
 20
191.583969
  0
POLYLINE
  8
Layer0
 62
8
 66
1
 70
1
  0
VERTEX
  8
Layer0
 62
8
 10
77.985413
 20
187.959167
  0
VERTEX
  8
Layer0
 62
8
 10
77.985413
 20
194.731262
  0
VERTEX
  8
Layer0
 62
8
 10
158.000015
 20
194.731262
  0
VERTEX
  8
Layer0
 62
8
 10
158.000015
 20
187.959167
  0
VERTEX
  8
Layer0
 62
8
 10
77.985413
 20
187.959167
  0
SEQEND
  0
POLYLINE
  8
Layer0
 62
8
 66
1
 70
1
  0
VERTEX
  8
Layer0
 62
8
 10
18.138977
 20
174.518250
  0
VERTEX
  8
Layer0
 62
8
 10
18.138977
 20
181.270081
  0
VERTEX
  8
Layer0
 62
8
 10
157.912415
 20
181.270081
  0
VERTEX
  8
Layer0
 62
8
 10
157.912415
 20
174.518250
  0
VERTEX
  8
Layer0
 62
8
 10
18.138977
 20
174.518250
  0
SEQEND
  0
POLYLINE
  8
Layer0
 62
8
 66
1
 70
1
  0
VERTEX
  8
Layer0
 62
8
 10
18.138977
 20
161.175171
  0
VERTEX
  8
Layer0
 62
8
 10
18.138977
 20
167.712875
  0
VERTEX
  8
Layer0
 62
8
 10
158.000000
 20
167.712875
  0
VERTEX
  8
Layer0
 62
8
 10
158.000000
 20
161.175171
  0
VERTEX
  8
Layer0
 62
8
 10
18.138977
 20
161.175171
  0
SEQEND
  0
POLYLINE
  8
Layer0
 62
8
 66
1
 70
1
  0
VERTEX
  8
Layer0
 62
8
 10
18.138977
 20
147.598526
  0
VERTEX
  8
Layer0
 62
8
 10
18.138977
 20
154.208115
  0
VERTEX
  8
Layer0
 62
8
 10
158.000000
 20
154.208115
  0
VERTEX
  8
Layer0
 62
8
 10
158.000000
 20
147.598526
  0
VERTEX
  8
Layer0
 62
8
 10
18.138977
 20
147.598526
  0
SEQEND
  0
POLYLINE
  8
Layer0
 62
8
 66
1
 70
1
  0
VERTEX
  8
Layer0
 62
8
 10
18.000000
 20
147.635040
  0
VERTEX
  8
Layer0
 62
8
 10
18.000000
 20
236.000000
  0
VERTEX
  8
Layer0
 62
8
 10
157.912415
 20
236.000000
  0
VERTEX
  8
Layer0
 62
8
 10
157.912415
 20
147.635040
  0
VERTEX
  8
Layer0
 62
8
 10
18.000000
 20
147.635040
  0
SEQEND
  0
ENDBLK
  0
ENDSEC
  0
SECTION
  2
ENTITIES
  0
INSERT
  8
Layer0
  2
groupobj_55
 10
18.000000
 20
147.598526
  0
ENDSEC
  0
EOF
