  0
SECTION
  2
HEADER
  9
$HANDLING
 70
0
  0
ENDSEC
  0
SECTION
  2
TABLES
  0
TABLE
  2
LTYPE
 70
8
  0
LTYPE
  2
CONTINUOUS
 70
64
  3
Solid line
 72
65
 73
0
 40
0.000000
  0
LTYPE
  2
DASHED
 70
64
  3
__ __ __ __
 72
65
 73
2
 40
18.750000
 49
12.500000
 49
-6.250000
  0
LTYPE
  2
HIDDEN
 70
64
  3
_ _ _ _ _ _
 72
65
 73
2
 40
9.375000
 49
6.250000
 49
-3.125000
  0
LTYPE
  2
DASHDOT
 70
64
  3
__.__.__.__
 72
65
 73
4
 40
25.000000
 49
12.500000
 49
-6.250000
 49
0.000000
 49
-6.250000
  0
ENDTAB
  0
TABLE
  2
LAYER
 70
1
  0
LAYER
  2
Layer0
 70
0
 62
8
  6
CONTINUOUS
  0
ENDTAB
  0
TABLE
  2
APPID
 70
1
  0
APPID
  2
smartdraw
 70
0
  0
ENDTAB
  0
TABLE
  2
UCS
 70
1
  0
UCS
  2
UCSENTRY1
 70
0
 10
0.000000
 20
0.000000
 11
1.000000
 21
0.000000
 12
0.000000
 22
1.000000
  0
ENDTAB
  0
ENDSEC
  0
SECTION
  2
BLOCKS
  0
BLOCK
 70
0
  2
none
 10
0
 20
0
  0
ENDBLK
  0
BLOCK
  8
Layer0
 70
0
  2
groupobj_0
 10
53.927010
 20
189.830750
  0
POINT
 10
53.927010
 20
189.839417
  8
Layer0

  0
LINE
 10
55.106804
 20
189.844162
  8
Layer0
 11
53.943710
 21
195.018036
  0
LINE
 10
56.461449
 20
189.844162
  8
Layer0
 11
55.106804
 21
189.844162
  0
LINE
 10
57.098091
 20
192.768005
  8
Layer0
 11
56.461449
 21
189.844162
  0
LINE
 10
57.536530
 20
189.830750
  8
Layer0
 11
57.098091
 21
192.768005
  0
LINE
 10
58.930283
 20
189.830750
  8
Layer0
 11
57.536530
 21
189.830750
  0
LINE
 10
60.277008
 20
195.028320
  8
Layer0
 11
58.930283
 21
189.830750
  0
LINE
 10
58.879471
 20
195.028320
  8
Layer0
 11
60.277008
 21
195.028320
  0
LINE
 10
58.183807
 20
191.772507
  8
Layer0
 11
58.879471
 21
195.028320
  0
LINE
 10
57.761284
 20
195.037552
  8
Layer0
 11
58.183807
 21
191.772507
  0
LINE
 10
56.467323
 20
195.037552
  8
Layer0
 11
57.761284
 21
195.037552
  0
LINE
 10
55.857689
 20
191.798126
  8
Layer0
 11
56.467323
 21
195.037552
  0
LINE
 10
55.312004
 20
195.018036
  8
Layer0
 11
55.857689
 21
191.798126
  0
LINE
 10
53.943710
 20
195.018036
  8
Layer0
 11
55.312004
 21
195.018036
  0
ENDBLK
  0
BLOCK
  8
Layer0
 70
0
  2
groupobj_1
 10
104.080292
 20
189.708038
  0
POINT
 10
104.080292
 20
189.708038
  8
Layer0

  0
LINE
 10
107.705109
 20
193.101624
  8
Layer0
 11
105.573959
 21
193.101624
  0
LINE
 10
104.080292
 20
189.708038
  8
Layer0
 11
108.311882
 21
189.708038
  0
LINE
 10
108.311882
 20
189.708038
  8
Layer0
 11
108.311882
 21
191.191406
  0
LINE
 10
105.573959
 20
193.640610
  8
Layer0
 11
108.311882
 21
193.640610
  0
LINE
 10
104.080292
 20
194.968521
  8
Layer0
 11
108.311882
 21
194.968521
  0
LINE
 10
105.573959
 20
193.640610
  8
Layer0
 11
105.573959
 21
193.101624
  0
LINE
 10
104.080292
 20
194.968521
  8
Layer0
 11
104.080292
 21
189.708038
  0
LINE
 10
105.552711
 20
191.934723
  8
Layer0
 11
107.705109
 21
191.934723
  0
LINE
 10
107.705109
 20
193.101624
  8
Layer0
 11
107.705109
 21
191.934723
  0
LINE
 10
108.311882
 20
193.640610
  8
Layer0
 11
108.311882
 21
194.968521
  0
LINE
 10
105.550308
 20
191.200729
  8
Layer0
 11
105.552711
 21
191.934723
  0
LINE
 10
108.311882
 20
191.191406
  8
Layer0
 11
105.550308
 21
191.200729
  0
ENDBLK
  0
BLOCK
  8
Layer0
 70
0
  2
groupobj_2
 10
80.000000
 20
214.000000
  0
POINT
 10
80.000000
 20
214.000000
  8
Layer0

  0
LINE
 10
81.477257
 20
219.176300
  8
Layer0
 11
80.000000
 21
219.176300
  0
LINE
 10
81.355789
 20
214.000000
  8
Layer0
 11
80.000000
 21
214.000000
  0
LINE
 10
81.477257
 20
219.176300
  8
Layer0
 11
83.198288
 21
216.745468
  0
LINE
 10
80.000000
 20
214.000000
  8
Layer0
 11
80.000000
 21
219.176300
  0
LINE
 10
81.355789
 20
216.661713
  8
Layer0
 11
81.355789
 21
214.000000
  0
LINE
 10
83.198288
 20
214.000000
  8
Layer0
 11
81.355789
 21
216.661713
  0
LINE
 10
83.198288
 20
219.176300
  8
Layer0
 11
83.198288
 21
216.745468
  0
LINE
 10
84.415024
 20
219.176300
  8
Layer0
 11
84.415024
 21
214.000000
  0
LINE
 10
84.415024
 20
219.176300
  8
Layer0
 11
83.198288
 21
219.176300
  0
LINE
 10
84.415024
 20
214.000000
  8
Layer0
 11
83.198288
 21
214.000000
  0
ENDBLK
  0
BLOCK
  8
Layer0
 70
0
  2
groupobj_3
 10
82.026215
 20
171.840012
  0
LINE
 10
82.026215
 20
182.000595
  8
Layer0
 11
82.026215
 21
171.840012
  0
LINE
 10
82.026215
 20
171.840012
  8
Layer0
 11
84.143005
 21
182.000595
  0
LINE
 10
84.143005
 20
182.000595
  8
Layer0
 11
82.026215
 21
182.000595
  0
ENDBLK
  0
BLOCK
  8
Layer0
 70
0
  2
groupobj_4
 10
61.840012
 20
189.856995
  0
LINE
 10
72.000595
 20
191.973785
  8
Layer0
 11
61.840012
 21
191.973785
  0
LINE
 10
61.840012
 20
191.973785
  8
Layer0
 11
72.000595
 21
189.856995
  0
LINE
 10
72.000595
 20
189.856995
  8
Layer0
 11
72.000595
 21
191.973785
  0
ENDBLK
  0
BLOCK
  8
Layer0
 70
0
  2
groupobj_5
 10
61.840012
 20
192.026215
  0
LINE
 10
72.000595
 20
192.026215
  8
Layer0
 11
61.840012
 21
192.026215
  0
LINE
 10
61.840012
 20
192.026215
  8
Layer0
 11
72.000595
 21
194.143005
  0
LINE
 10
72.000595
 20
194.143005
  8
Layer0
 11
72.000595
 21
192.026215
  0
ENDBLK
  0
BLOCK
  8
Layer0
 70
0
  2
groupobj_6
 10
61.840012
 20
189.856995
  0
INSERT
  8
Layer0
  2
groupobj_4
 10
61.840012
 20
189.856995
  0
INSERT
  8
Layer0
  2
groupobj_5
 10
61.840012
 20
192.026215
  0
ENDBLK
  0
BLOCK
  8
Layer0
 70
0
  2
groupobj_7
 10
91.999405
 20
189.856995
  0
LINE
 10
91.999405
 20
191.973785
  8
Layer0
 11
102.159988
 21
191.973785
  0
LINE
 10
102.159988
 20
191.973785
  8
Layer0
 11
91.999405
 21
189.856995
  0
LINE
 10
91.999405
 20
189.856995
  8
Layer0
 11
91.999405
 21
191.973785
  0
ENDBLK
  0
BLOCK
  8
Layer0
 70
0
  2
groupobj_8
 10
91.999405
 20
192.026215
  0
LINE
 10
91.999405
 20
192.026215
  8
Layer0
 11
102.159988
 21
192.026215
  0
LINE
 10
102.159988
 20
192.026215
  8
Layer0
 11
91.999405
 21
194.143005
  0
LINE
 10
91.999405
 20
194.143005
  8
Layer0
 11
91.999405
 21
192.026215
  0
ENDBLK
  0
BLOCK
  8
Layer0
 70
0
  2
groupobj_9
 10
91.999405
 20
189.856995
  0
INSERT
  8
Layer0
  2
groupobj_7
 10
91.999405
 20
189.856995
  0
INSERT
  8
Layer0
  2
groupobj_8
 10
91.999405
 20
192.026215
  0
ENDBLK
  0
BLOCK
  8
Layer0
 70
0
  2
groupobj_10
 10
79.856995
 20
171.840012
  0
LINE
 10
81.973785
 20
182.000595
  8
Layer0
 11
81.973785
 21
171.840012
  0
LINE
 10
81.973785
 20
171.840012
  8
Layer0
 11
79.856995
 21
182.000595
  0
LINE
 10
79.856995
 20
182.000595
  8
Layer0
 11
81.973785
 21
182.000595
  0
ENDBLK
  0
BLOCK
  8
Layer0
 70
0
  2
groupobj_11
 10
82.026215
 20
201.999405
  0
LINE
 10
82.026215
 20
201.999405
  8
Layer0
 11
82.026215
 21
212.159988
  0
LINE
 10
82.026215
 20
212.159988
  8
Layer0
 11
84.143005
 21
201.999405
  0
LINE
 10
84.143005
 20
201.999405
  8
Layer0
 11
82.026215
 21
201.999405
  0
ENDBLK
  0
BLOCK
  8
Layer0
 70
0
  2
groupobj_12
 10
79.856995
 20
201.999405
  0
LINE
 10
81.973785
 20
201.999405
  8
Layer0
 11
81.973785
 21
212.159988
  0
LINE
 10
81.973785
 20
212.159988
  8
Layer0
 11
79.856995
 21
201.999405
  0
LINE
 10
79.856995
 20
201.999405
  8
Layer0
 11
81.973785
 21
201.999405
  0
ENDBLK
  0
ENDSEC
  0
SECTION
  2
ENTITIES
  0
CIRCLE
 10
82.000000
 20
192.000000
  8
Layer0
 40
7.211102
  0
INSERT
  8
Layer0
  2
groupobj_0
 10
53.927010
 20
189.830750
  0
INSERT
  8
Layer0
  2
groupobj_1
 10
104.080292
 20
189.708038
  0
INSERT
  8
Layer0
  2
groupobj_2
 10
80.000000
 20
214.000000
  0
INSERT
  8
Layer0
  2
groupobj_3
 10
82.026215
 20
171.840012
  0
INSERT
  8
Layer0
  2
groupobj_6
 10
61.840012
 20
189.856995
  0
INSERT
  8
Layer0
  2
groupobj_9
 10
91.999405
 20
189.856995
  0
INSERT
  8
Layer0
  2
groupobj_10
 10
79.856995
 20
171.840012
  0
INSERT
  8
Layer0
  2
groupobj_11
 10
82.026215
 20
201.999405
  0
INSERT
  8
Layer0
  2
groupobj_12
 10
79.856995
 20
201.999405
  0
CIRCLE
 10
82.000000
 20
192.000000
  8
Layer0
 40
8.246211
  0
ENDSEC
  0
EOF
