  0
SECTION
  2
HEADER
  9
$HANDLING
 70
0
  0
ENDSEC
  0
SECTION
  2
TABLES
  0
TABLE
  2
LTYPE
 70
8
  0
LTYPE
  2
CONTINUOUS
 70
64
  3
Solid line
 72
65
 73
0
 40
0.000000
  0
LTYPE
  2
DASHED
 70
64
  3
__ __ __ __
 72
65
 73
2
 40
18.750000
 49
12.500000
 49
-6.250000
  0
LTYPE
  2
HIDDEN
 70
64
  3
_ _ _ _ _ _
 72
65
 73
2
 40
9.375000
 49
6.250000
 49
-3.125000
  0
LTYPE
  2
DASHDOT
 70
64
  3
__.__.__.__
 72
65
 73
4
 40
25.000000
 49
12.500000
 49
-6.250000
 49
0.000000
 49
-6.250000
  0
ENDTAB
  0
TABLE
  2
LAYER
 70
1
  0
LAYER
  2
Layer0
 70
0
 62
8
  6
CONTINUOUS
  0
ENDTAB
  0
TABLE
  2
APPID
 70
1
  0
APPID
  2
smartdraw
 70
0
  0
ENDTAB
  0
TABLE
  2
UCS
 70
1
  0
UCS
  2
UCSENTRY1
 70
0
 10
0.000000
 20
0.000000
 11
1.000000
 21
0.000000
 12
0.000000
 22
1.000000
  0
ENDTAB
  0
ENDSEC
  0
SECTION
  2
BLOCKS
  0
BLOCK
 70
0
  2
none
 10
0
 20
0
  0
ENDBLK
  0
BLOCK
  8
Layer0
 70
0
  2
groupobj_0
 10
48.946644
 20
202.317459
  0
POLYLINE
  8
Layer0
 62
8
 66
1
 70
1
  0
VERTEX
  8
Layer0
 62
8
 10
48.946644
 20
202.317459
  0
VERTEX
  8
Layer0
 62
8
 10
48.946644
 20
204.592377
  0
VERTEX
  8
Layer0
 62
8
 10
49.763771
 20
204.592377
  0
VERTEX
  8
Layer0
 62
8
 10
49.763771
 20
202.317459
  0
VERTEX
  8
Layer0
 62
8
 10
48.946644
 20
202.317459
  0
SEQEND
  0
POLYLINE
  8
Layer0
 62
8
 66
1
 70
1
  0
VERTEX
  8
Layer0
 62
8
 10
64.053917
 20
202.317459
  0
VERTEX
  8
Layer0
 62
8
 10
64.053917
 20
204.592377
  0
VERTEX
  8
Layer0
 62
8
 10
64.871056
 20
204.592377
  0
VERTEX
  8
Layer0
 62
8
 10
64.871056
 20
202.317459
  0
VERTEX
  8
Layer0
 62
8
 10
64.053917
 20
202.317459
  0
SEQEND
  0
ENDBLK
  0
BLOCK
  8
Layer0
 70
0
  2
groupobj_1
 10
44.003960
 20
202.317459
  0
LINE
 10
48.011578
 20
215.574799
  8
Layer0
 11
50.015388
 21
213.923050
  0
LINE
 10
50.015388
 20
213.923050
  8
Layer0
 11
64.042053
 21
213.923050
  0
LINE
 10
60.000000
 20
214.000000
  8
Layer0
 11
62.000000
 21
210.000000
  0
LINE
 10
54.000000
 20
214.000000
  8
Layer0
 11
52.000000
 21
210.000000
  0
LINE
 10
48.011578
 20
215.574799
  8
Layer0
 11
46.000000
 21
230.000000
  0
LINE
 10
66.045860
 20
215.574799
  8
Layer0
 11
68.000000
 21
230.000000
  0
LINE
 10
48.000000
 20
232.000000
  8
Layer0
 11
66.000000
 21
232.000000
  0
LINE
 10
66.000000
 20
232.000000
  8
Layer0
 11
68.000000
 21
230.000000
  0
LINE
 10
48.003960
 20
232.092285
  8
Layer0
 11
46.000000
 21
230.000000
  0
POLYLINE
  8
Layer0
 62
8
 66
1
 70
1
  0
VERTEX
  8
Layer0
 62
8
 10
48.993984
 20
231.953979
  0
VERTEX
  8
Layer0
 62
8
 10
48.993984
 20
236.129166
  0
VERTEX
  8
Layer0
 62
8
 10
49.854130
 20
236.129166
  0
VERTEX
  8
Layer0
 62
8
 10
49.854130
 20
231.953979
  0
VERTEX
  8
Layer0
 62
8
 10
48.993984
 20
231.953979
  0
SEQEND
  0
POLYLINE
  8
Layer0
 62
8
 66
1
 70
1
  0
VERTEX
  8
Layer0
 62
8
 10
64.098907
 20
232.030487
  0
VERTEX
  8
Layer0
 62
8
 10
64.098907
 20
236.205673
  0
VERTEX
  8
Layer0
 62
8
 10
64.959053
 20
236.205673
  0
VERTEX
  8
Layer0
 62
8
 10
64.959053
 20
232.030487
  0
VERTEX
  8
Layer0
 62
8
 10
64.098907
 20
232.030487
  0
SEQEND
  0
LINE
 10
50.000000
 20
210.000000
  8
Layer0
 11
64.000000
 21
210.000000
  0
LINE
 10
48.663406
 20
204.643478
  8
Layer0
 11
65.181267
 21
204.643478
  0
INSERT
  8
Layer0
  2
groupobj_0
 10
48.946644
 20
202.317459
  0
LINE
 10
48.011578
 20
212.619553
  8
Layer0
 11
44.003960
 21
207.664322
  0
LINE
 10
48.011578
 20
212.619553
  8
Layer0
 11
50.000000
 21
210.000000
  0
LINE
 10
44.003960
 20
207.664322
  8
Layer0
 11
48.663406
 21
204.544571
  0
LINE
 10
63.943146
 20
213.923065
  8
Layer0
 11
65.946953
 21
215.574814
  0
LINE
 10
69.806557
 20
207.797409
  8
Layer0
 11
65.114021
 21
204.727676
  0
LINE
 10
65.852150
 20
212.795227
  8
Layer0
 11
69.806557
 21
207.797409
  0
LINE
 10
65.852150
 20
212.795227
  8
Layer0
 11
63.895447
 21
210.083496
  0
LINE
 10
63.186256
 20
213.801208
  8
Layer0
 11
65.082359
 21
211.666046
  0
LINE
 10
50.542686
 20
213.842041
  8
Layer0
 11
48.960136
 21
211.666046
  0
LINE
 10
56.752705
 20
213.981888
  8
Layer0
 11
56.752705
 21
209.981888
  0
ENDBLK
  0
ENDSEC
  0
SECTION
  2
ENTITIES
  0
INSERT
  8
Layer0
  2
groupobj_1
 10
44.003960
 20
202.317459
  0
ENDSEC
  0
EOF
